  0
SECTION
  2
HEADER
  9
$ACADVER
  1
AC1015
  9
$ACADMAINTVER
 70
     6
  9
$DWGCODEPAGE
  3
ANSI_1254
  9
$INSBASE
 10
0.0
 20
0.0
 30
0.0
  9
$EXTMIN
 10
0.0
 20
0.0
 30
0.0
  9
$EXTMAX
 10
279.4
 20
215.9
 30
0.0
  9
$LIMMIN
 10
0.0
 20
0.0
  9
$LIMMAX
 10
279.4
 20
215.9
  9
$ORTHOMODE
 70
     0
  9
$REGENMODE
 70
     1
  9
$FILLMODE
 70
     1
  9
$QTEXTMODE
 70
     0
  9
$MIRRTEXT
 70
     1
  9
$LTSCALE
 40
1.0
  9
$ATTMODE
 70
     1
  9
$TEXTSIZE
 40
3.5
  9
$TRACEWID
 40
1.0
  9
$TEXTSTYLE
  7
Standard
  9
$CLAYER
  8
0
  9
$CELTYPE
  6
ByLayer
  9
$CECOLOR
 62
   256
  9
$CELTSCALE
 40
1.0
  9
$DISPSILH
 70
     0
  9
$DIMSCALE
 40
1.0
  9
$DIMASZ
 40
3.5
  9
$DIMEXO
 40
1.0
  9
$DIMDLI
 40
3.75
  9
$DIMRND
 40
0.0
  9
$DIMDLE
 40
0.0
  9
$DIMEXE
 40
1.0
  9
$DIMTP
 40
0.0
  9
$DIMTM
 40
0.0
  9
$DIMTXT
 40
3.5
  9
$DIMCEN
 40
2.5
  9
$DIMTSZ
 40
0.0
  9
$DIMTOL
 70
     0
  9
$DIMLIM
 70
     0
  9
$DIMTIH
 70
     1
  9
$DIMTOH
 70
     1
  9
$DIMSE1
 70
     0
  9
$DIMSE2
 70
     0
  9
$DIMTAD
 70
     1
  9
$DIMZIN
 70
     0
  9
$DIMBLK
  1

  9
$DIMASO
 70
     1
  9
$DIMSHO
 70
     1
  9
$DIMPOST
  1

  9
$DIMAPOST
  1

  9
$DIMALT
 70
     0
  9
$DIMALTD
 70
     3
  9
$DIMALTF
 40
0.0393700787
  9
$DIMLFAC
 40
1.0
  9
$DIMTOFL
 70
     1
  9
$DIMTVP
 40
0.0
  9
$DIMTIX
 70
     0
  9
$DIMSOXD
 70
     0
  9
$DIMSAH
 70
     0
  9
$DIMBLK1
  1

  9
$DIMBLK2
  1

  9
$DIMSTYLE
  2
ISO-25
  9
$DIMCLRD
 70
     0
  9
$DIMCLRE
 70
     0
  9
$DIMCLRT
 70
     0
  9
$DIMTFAC
 40
1.0
  9
$DIMGAP
 40
1.524
  9
$DIMJUST
 70
     0
  9
$DIMSD1
 70
     0
  9
$DIMSD2
 70
     0
  9
$DIMTOLJ
 70
     0
  9
$DIMTZIN
 70
     0
  9
$DIMALTZ
 70
     0
  9
$DIMALTTZ
 70
     0
  9
$DIMUPT
 70
     0
  9
$DIMDEC
 70
     2
  9
$DIMTDEC
 70
     2
  9
$DIMALTU
 70
     2
  9
$DIMALTTD
 70
     3
  9
$DIMTXSTY
  7
Standard
  9
$DIMAUNIT
 70
     0
  9
$DIMADEC
 70
     2
  9
$DIMALTRND
 40
0.0
  9
$DIMAZIN
 70
     0
  9
$DIMDSEP
 70
    44
  9
$DIMATFIT
 70
     3
  9
$DIMFRAC
 70
     0
  9
$DIMLDRBLK
  1

  9
$DIMLUNIT
 70
     2
  9
$DIMLWD
 70
    -2
  9
$DIMLWE
 70
    -2
  9
$DIMTMOVE
 70
     0
  9
$LUNITS
 70
     2
  9
$LUPREC
 70
     2
  9
$SKETCHINC
 40
1.0
  9
$FILLETRAD
 40
10.0
  9
$AUNITS
 70
     0
  9
$AUPREC
 70
     2
  9
$MENU
  1
.
  9
$ELEVATION
 40
0.0
  9
$PELEVATION
 40
0.0
  9
$THICKNESS
 40
0.0
  9
$LIMCHECK
 70
     0
  9
$CHAMFERA
 40
0.0
  9
$CHAMFERB
 40
0.0
  9
$CHAMFERC
 40
0.0
  9
$CHAMFERD
 40
0.0
  9
$SKPOLY
 70
     0
  9
$TDCREATE
 40
2459741.601729352
  9
$TDUCREATE
 40
2459741.476729352
  9
$TDUPDATE
 40
2459741.601729537
  9
$TDUUPDATE
 40
2459741.476729537
  9
$TDINDWG
 40
0.0000000116
  9
$TDUSRTIMER
 40
0.0000000116
  9
$USRTIMER
 70
     1
  9
$ANGBASE
 50
0.0
  9
$ANGDIR
 70
     0
  9
$PDMODE
 70
     0
  9
$PDSIZE
 40
-1.0
  9
$PLINEWID
 40
0.0
  9
$SPLFRAME
 70
     0
  9
$SPLINETYPE
 70
     6
  9
$SPLINESEGS
 70
     8
  9
$HANDSEED
  5
12B
  9
$SURFTAB1
 70
     6
  9
$SURFTAB2
 70
     6
  9
$SURFTYPE
 70
     6
  9
$SURFU
 70
     6
  9
$SURFV
 70
     6
  9
$UCSBASE
  2

  9
$UCSNAME
  2

  9
$UCSORG
 10
0.0
 20
0.0
 30
0.0
  9
$UCSXDIR
 10
1.0
 20
0.0
 30
0.0
  9
$UCSYDIR
 10
0.0
 20
1.0
 30
0.0
  9
$UCSORTHOREF
  2

  9
$UCSORTHOVIEW
 70
     0
  9
$UCSORGTOP
 10
0.0
 20
0.0
 30
0.0
  9
$UCSORGBOTTOM
 10
0.0
 20
0.0
 30
0.0
  9
$UCSORGLEFT
 10
0.0
 20
0.0
 30
0.0
  9
$UCSORGRIGHT
 10
0.0
 20
0.0
 30
0.0
  9
$UCSORGFRONT
 10
0.0
 20
0.0
 30
0.0
  9
$UCSORGBACK
 10
0.0
 20
0.0
 30
0.0
  9
$PUCSBASE
  2

  9
$PUCSNAME
  2

  9
$PUCSORG
 10
0.0
 20
0.0
 30
0.0
  9
$PUCSXDIR
 10
1.0
 20
0.0
 30
0.0
  9
$PUCSYDIR
 10
0.0
 20
1.0
 30
0.0
  9
$PUCSORTHOREF
  2

  9
$PUCSORTHOVIEW
 70
     0
  9
$PUCSORGTOP
 10
0.0
 20
0.0
 30
0.0
  9
$PUCSORGBOTTOM
 10
0.0
 20
0.0
 30
0.0
  9
$PUCSORGLEFT
 10
0.0
 20
0.0
 30
0.0
  9
$PUCSORGRIGHT
 10
0.0
 20
0.0
 30
0.0
  9
$PUCSORGFRONT
 10
0.0
 20
0.0
 30
0.0
  9
$PUCSORGBACK
 10
0.0
 20
0.0
 30
0.0
  9
$USERI1
 70
     0
  9
$USERI2
 70
     0
  9
$USERI3
 70
     0
  9
$USERI4
 70
     0
  9
$USERI5
 70
     0
  9
$USERR1
 40
0.0
  9
$USERR2
 40
0.0
  9
$USERR3
 40
0.0
  9
$USERR4
 40
0.0
  9
$USERR5
 40
0.0
  9
$WORLDVIEW
 70
     1
  9
$SHADEDGE
 70
     3
  9
$SHADEDIF
 70
    70
  9
$TILEMODE
 70
     1
  9
$MAXACTVP
 70
    64
  9
$PINSBASE
 10
0.0
 20
0.0
 30
0.0
  9
$PLIMCHECK
 70
     0
  9
$PEXTMIN
 10
1.0000000000E+20
 20
1.0000000000E+20
 30
1.0000000000E+20
  9
$PEXTMAX
 10
-1.0000000000E+20
 20
-1.0000000000E+20
 30
-1.0000000000E+20
  9
$PLIMMIN
 10
0.0
 20
0.0
  9
$PLIMMAX
 10
420.0
 20
297.0
  9
$UNITMODE
 70
     0
  9
$VISRETAIN
 70
     1
  9
$PLINEGEN
 70
     0
  9
$PSLTSCALE
 70
     1
  9
$TREEDEPTH
 70
  3020
  9
$CMLSTYLE
  2
Standard
  9
$CMLJUST
 70
     0
  9
$CMLSCALE
 40
20.0
  9
$PROXYGRAPHICS
 70
     1
  9
$MEASUREMENT
 70
     1
  9
$CELWEIGHT
370
    -1
  9
$ENDCAPS
280
     0
  9
$JOINSTYLE
280
     0
  9
$LWDISPLAY
290
     1
  9
$INSUNITS
 70
     4
  9
$HYPERLINKBASE
  1

  9
$STYLESHEET
  1

  9
$XEDIT
290
     1
  9
$CEPSNTYPE
380
     0
  9
$PSTYLEMODE
290
     1
  9
$FINGERPRINTGUID
  2
{04598ec3-848b-4260-8392-a7b927bf91b9}
  9
$VERSIONGUID
  2
{FAEB1C32-E019-11D5-929B-00C0DF256EC4}
  9
$EXTNAMES
290
     1
  9
$PSVPSCALE
 40
0.0
  9
$OLESTARTUP
290
     0
  0
ENDSEC
  0
SECTION
  2
CLASSES
  0
CLASS
  1
ACDBDICTIONARYWDFLT
  2
AcDbDictionaryWithDefault
  3
ObjectDBX Classes
 90
        0
280
     0
281
     0
  0
CLASS
  1
VISUALSTYLE
  2
AcDbVisualStyle
  3
ObjectDBX Classes
 90
     4095
280
     0
281
     0
  0
CLASS
  1
MATERIAL
  2
AcDbMaterial
  3
ObjectDBX Classes
 90
     1153
280
     0
281
     0
  0
CLASS
  1
SCALE
  2
AcDbScale
  3
ObjectDBX Classes
 90
     1153
280
     0
281
     0
  0
CLASS
  1
TABLESTYLE
  2
AcDbTableStyle
  3
ObjectDBX Classes
 90
     4095
280
     0
281
     0
  0
CLASS
  1
MLEADERSTYLE
  2
AcDbMLeaderStyle
  3
ACDB_MLEADERSTYLE_CLASS
 90
     4095
280
     0
281
     0
  0
CLASS
  1
SUN
  2
AcDbSun
  3
SCENEOE
 90
     1153
280
     0
281
     0
  0
CLASS
  1
ACDBPLACEHOLDER
  2
AcDbPlaceHolder
  3
ObjectDBX Classes
 90
        0
280
     0
281
     0
  0
CLASS
  1
LAYOUT
  2
AcDbLayout
  3
ObjectDBX Classes
 90
        0
280
     0
281
     0
  0
ENDSEC
  0
SECTION
  2
TABLES
  0
TABLE
  2
VPORT
  5
8
330
0
100
AcDbSymbolTable
 70
     1
  0
VPORT
  5
29
330
8
100
AcDbSymbolTableRecord
100
AcDbViewportTableRecord
  2
*Active
 70
     0
 10
0.0
 20
0.0
 11
1.0
 21
1.0
 12
139.7
 22
107.95
 13
0.0
 23
0.0
 14
10.0
 24
10.0
 15
10.0
 25
10.0
 16
0.0
 26
0.0
 36
1.0
 17
0.0
 27
0.0
 37
0.0
 40
215.9
 41
1.2941176471
 42
50.0
 43
0.0
 44
0.0
 50
0.0
 51
0.0
 71
     0
 72
  2000
 73
     1
 74
     3
 75
     0
 76
     0
 77
     0
 78
     0
281
     0
 65
     1
110
0.0
120
0.0
130
0.0
111
1.0
121
0.0
131
0.0
112
0.0
122
1.0
132
0.0
 79
     0
146
0.0
  0
ENDTAB
  0
TABLE
  2
LTYPE
  5
5
330
0
100
AcDbSymbolTable
 70
     6
  0
LTYPE
  5
14
330
5
100
AcDbSymbolTableRecord
100
AcDbLinetypeTableRecord
  2
ByBlock
 70
     0
  3

 72
    65
 73
     0
 40
0.0
  0
LTYPE
  5
15
330
5
100
AcDbSymbolTableRecord
100
AcDbLinetypeTableRecord
  2
ByLayer
 70
     0
  3

 72
    65
 73
     0
 40
0.0
  0
LTYPE
  5
16
330
5
100
AcDbSymbolTableRecord
100
AcDbLinetypeTableRecord
  2
Continuous
 70
     0
  3
Solid line
 72
    65
 73
     0
 40
0.0
  0
LTYPE
  5
6E
330
5
100
AcDbSymbolTableRecord
100
AcDbLinetypeTableRecord
  2
HIDDEN
 70
     0
  3
Hidden __ __ __ __ __ __ __ __ __ __ __ __ __ __
 72
    65
 73
     2
 40
1.905
 49
1.27
 74
     0
 49
-0.635
 74
     0
  0
LTYPE
  5
6F
330
5
100
AcDbSymbolTableRecord
100
AcDbLinetypeTableRecord
  2
PHANTOM
 70
     0
  3
Phantom ______  __  __  ______  __  __  ______
 72
    65
 73
     6
 40
12.7
 49
6.35
 74
     0
 49
-1.27
 74
     0
 49
1.27
 74
     0
 49
-1.27
 74
     0
 49
1.27
 74
     0
 49
-1.27
 74
     0
  0
LTYPE
  5
70
330
5
100
AcDbSymbolTableRecord
100
AcDbLinetypeTableRecord
  2
CENTER
 70
     0
  3
Center ____ _ ____ _ ____ _ ____ _ ____ _ ____
 72
    65
 73
     4
 40
10.16
 49
6.35
 74
     0
 49
-1.27
 74
     0
 49
1.27
 74
     0
 49
-1.27
 74
     0
  0
LTYPE
  5
71
330
5
100
AcDbSymbolTableRecord
100
AcDbLinetypeTableRecord
  2
CENTERX2
 70
     0
  3
Center (2x) ________  __  ________  __  _____
 72
    65
 73
     4
 40
20.32
 49
12.7
 74
     0
 49
-2.54
 74
     0
 49
2.54
 74
     0
 49
-2.54
 74
     0
  0
LTYPE
  5
72
330
5
100
AcDbSymbolTableRecord
100
AcDbLinetypeTableRecord
  2
DOT2
 70
     0
  3
Dot (.5x) ........................................
 72
    65
 73
     2
 40
0.635
 49
0.0
 74
     0
 49
-0.635
 74
     0
  0
ENDTAB
  0
TABLE
  2
LAYER
  5
2
330
0
100
AcDbSymbolTable
 70
    17
  0
LAYER
  5
10
330
2
100
AcDbSymbolTableRecord
100
AcDbLayerTableRecord
  2
0
 70
     0
 62
     7
  6
Continuous
370
    -3
390
F
  0
LAYER
  5
73
330
2
100
AcDbSymbolTableRecord
100
AcDbLayerTableRecord
  2
FORMAT
 70
     0
 62
     7
  6
Continuous
370
    -3
390
F
  0
LAYER
  5
74
330
2
100
AcDbSymbolTableRecord
100
AcDbLayerTableRecord
  2
YARDIMCI_GEOMETRI
 70
     0
 62
    -6
  6
Continuous
290
     0
370
    -3
390
F
  0
LAYER
  5
75
330
2
100
AcDbSymbolTableRecord
100
AcDbLayerTableRecord
  2
SAYFA_CERCEVESI
 70
     0
 62
     7
  6
Continuous
370
    25
390
F
  0
LAYER
  5
76
330
2
100
AcDbSymbolTableRecord
100
AcDbLayerTableRecord
  2
ANTET
 70
     0
 62
     7
  6
Continuous
370
    -3
390
F
  0
LAYER
  5
77
330
2
100
AcDbSymbolTableRecord
100
AcDbLayerTableRecord
  2
OLCU
 70
     0
 62
   150
  6
Continuous
370
    -3
390
F
  0
LAYER
  5
78
330
2
100
AcDbSymbolTableRecord
100
AcDbLayerTableRecord
  2
METIN
 70
     0
 62
    96
  6
Continuous
370
    -3
390
F
  0
LAYER
  5
79
330
2
100
AcDbSymbolTableRecord
100
AcDbLayerTableRecord
  2
BALON
 70
     0
 62
     5
  6
Continuous
370
    -3
390
F
  0
LAYER
  5
7A
330
2
100
AcDbSymbolTableRecord
100
AcDbLayerTableRecord
  2
VURGU
 70
     0
 62
     7
  6
Continuous
370
    -3
390
F
  0
LAYER
  5
7B
330
2
100
AcDbSymbolTableRecord
100
AcDbLayerTableRecord
  2
SILIK
 70
     0
 62
     7
  6
Continuous
370
    -3
390
F
  0
LAYER
  5
7C
330
2
100
AcDbSymbolTableRecord
100
AcDbLayerTableRecord
  2
MODEL
 70
     0
 62
     7
  6
Continuous
370
    -3
390
F
  0
LAYER
  5
7D
330
2
100
AcDbSymbolTableRecord
100
AcDbLayerTableRecord
  2
DETAYLANDıRMA
 70
     0
 62
   190
  6
Continuous
370
    -3
390
F
  0
LAYER
  5
7E
330
2
100
AcDbSymbolTableRecord
100
AcDbLayerTableRecord
  2
TOLERANS
 70
     0
 62
   230
  6
Continuous
370
    -3
390
F
  0
LAYER
  5
7F
330
2
100
AcDbSymbolTableRecord
100
AcDbLayerTableRecord
  2
MERKEZ_CIZGILERI
 70
     0
 62
    30
  6
Continuous
370
    -3
390
F
  0
LAYER
  5
80
330
2
100
AcDbSymbolTableRecord
100
AcDbLayerTableRecord
  2
KESIT-DETAY_CIZGILERI
 70
     0
 62
     7
  6
Continuous
370
    -3
390
F
  0
LAYER
  5
81
330
2
100
AcDbSymbolTableRecord
100
AcDbLayerTableRecord
  2
\U+041E\U+0421\U+0415\U+0412\U+042B\U+0415
 70
     0
 62
     7
  6
Continuous
370
    -3
390
F
  0
LAYER
  5
82
330
2
100
AcDbSymbolTableRecord
100
AcDbLayerTableRecord
  2
\U+0412\U+041E\U+0414\U+042F\U+041D\U+042B\U+0415_\U+0417\U+041D\U+0410\U+041A\U+0418
 70
     0
 62
    11
  6
Continuous
370
    -3
390
F
  0
ENDTAB
  0
TABLE
  2
STYLE
  5
3
330
0
100
AcDbSymbolTable
 70
     1
  0
STYLE
  5
11
330
3
100
AcDbSymbolTableRecord
100
AcDbTextStyleTableRecord
  2
Standard
 70
     0
 40
0.0
 41
1.0
 50
0.0
 71
     0
 42
3.5
  3
txt
  4

  0
ENDTAB
  0
TABLE
  2
VIEW
  5
6
330
0
100
AcDbSymbolTable
 70
     0
  0
ENDTAB
  0
TABLE
  2
UCS
  5
7
330
0
100
AcDbSymbolTable
 70
     0
  0
ENDTAB
  0
TABLE
  2
APPID
  5
9
330
0
100
AcDbSymbolTable
 70
     1
  0
APPID
  5
12
330
9
100
AcDbSymbolTableRecord
100
AcDbRegAppTableRecord
  2
ACAD
 70
     0
  0
ENDTAB
  0
TABLE
  2
DIMSTYLE
  5
A
330
0
100
AcDbSymbolTable
 70
     1
100
AcDbDimStyleTable
  0
DIMSTYLE
105
27
330
A
100
AcDbSymbolTableRecord
100
AcDbDimStyleTableRecord
  2
ISO-25
 70
     0
 41
2.5
 42
0.625
 43
3.75
 44
1.25
 73
     0
 74
     0
 77
     1
 78
     8
140
2.5
141
2.5
143
0.0393700787
147
0.625
171
     3
172
     1
178
     0
271
     2
272
     2
274
     3
278
    44
283
     0
284
     8
340
11
  0
ENDTAB
  0
TABLE
  2
BLOCK_RECORD
  5
1
330
0
100
AcDbSymbolTable
 70
     4
  0
BLOCK_RECORD
  5
1F
330
1
100
AcDbSymbolTableRecord
100
AcDbBlockTableRecord
  2
*Model_Space
340
22
  0
BLOCK_RECORD
  5
1B
330
1
100
AcDbSymbolTableRecord
100
AcDbBlockTableRecord
  2
*Paper_Space
340
1E
  0
BLOCK_RECORD
  5
23
330
1
100
AcDbSymbolTableRecord
100
AcDbBlockTableRecord
  2
*Paper_Space0
340
26
  0
BLOCK_RECORD
  5
93
330
1
100
AcDbSymbolTableRecord
100
AcDbBlockTableRecord
  2
SW_CENTERMARKSYMBOL_0
340
0
102
{BLKREFS
331
9E
102
}
  0
BLOCK_RECORD
  5
E9
330
1
100
AcDbSymbolTableRecord
100
AcDbBlockTableRecord
  2
SW_CENTERMARKSYMBOL_1
340
0
102
{BLKREFS
331
F4
102
}
  0
BLOCK_RECORD
  5
F5
330
1
100
AcDbSymbolTableRecord
100
AcDbBlockTableRecord
  2
SW_CENTERMARKSYMBOL_2
340
0
102
{BLKREFS
331
100
102
}
  0
ENDTAB
  0
ENDSEC
  0
SECTION
  2
BLOCKS
  0
BLOCK
  5
20
330
1F
100
AcDbEntity
  8
0
100
AcDbBlockBegin
  2
*Model_Space
 70
     0
 10
0.0
 20
0.0
 30
0.0
  3
*Model_Space
  1

  0
ENDBLK
  5
21
330
1F
100
AcDbEntity
  8
0
100
AcDbBlockEnd
  0
BLOCK
  5
1C
330
1B
100
AcDbEntity
 67
     1
  8
0
100
AcDbBlockBegin
  2
*Paper_Space
 70
     0
 10
0.0
 20
0.0
 30
0.0
  3
*Paper_Space
  1

  0
ENDBLK
  5
1D
330
1B
100
AcDbEntity
 67
     1
  8
0
100
AcDbBlockEnd
  0
BLOCK
  5
24
330
23
100
AcDbEntity
  8
0
100
AcDbBlockBegin
  2
*Paper_Space0
 70
     0
 10
0.0
 20
0.0
 30
0.0
  3
*Paper_Space0
  1

  0
ENDBLK
  5
25
330
23
100
AcDbEntity
  8
0
100
AcDbBlockEnd
  0
BLOCK
  5
94
330
93
100
AcDbEntity
  8
0
100
AcDbBlockBegin
  2
SW_CENTERMARKSYMBOL_0
 70
     0
 10
0.0
 20
0.0
 30
0.0
  3
SW_CENTERMARKSYMBOL_0
  1

  0
LINE
  5
96
330
93
100
AcDbEntity
  8
FORMAT
 62
     0
100
AcDbLine
 10
0.0
 20
0.0
 30
0.0
 11
0.0
 21
2.5
 31
0.0
  0
LINE
  5
97
330
93
100
AcDbEntity
  8
FORMAT
 62
     0
100
AcDbLine
 10
0.0
 20
0.0
 30
0.0
 11
-2.5
 21
0.0
 31
0.0
  0
LINE
  5
98
330
93
100
AcDbEntity
  8
FORMAT
 62
     0
100
AcDbLine
 10
0.0
 20
0.0
 30
0.0
 11
0.0
 21
-2.5
 31
0.0
  0
LINE
  5
99
330
93
100
AcDbEntity
  8
FORMAT
 62
     0
100
AcDbLine
 10
0.0
 20
0.0
 30
0.0
 11
2.5
 21
0.0
 31
0.0
  0
LINE
  5
9A
330
93
100
AcDbEntity
  8
FORMAT
 62
     0
100
AcDbLine
 10
0.0
 20
5.0
 30
0.0
 11
0.0
 21
282.5
 31
0.0
  0
LINE
  5
9B
330
93
100
AcDbEntity
  8
FORMAT
 62
     0
100
AcDbLine
 10
-5.0
 20
0.0
 30
0.0
 11
-282.5
 21
0.0
 31
0.0
  0
LINE
  5
9C
330
93
100
AcDbEntity
  8
FORMAT
 62
     0
100
AcDbLine
 10
0.0
 20
-5.0
 30
0.0
 11
0.0
 21
-282.5
 31
0.0
  0
LINE
  5
9D
330
93
100
AcDbEntity
  8
FORMAT
 62
     0
100
AcDbLine
 10
5.0
 20
0.0
 30
0.0
 11
282.5
 21
0.0
 31
0.0
  0
ENDBLK
  5
95
330
93
100
AcDbEntity
  8
0
100
AcDbBlockEnd
  0
BLOCK
  5
EA
330
E9
100
AcDbEntity
  8
0
100
AcDbBlockBegin
  2
SW_CENTERMARKSYMBOL_1
 70
     0
 10
0.0
 20
0.0
 30
0.0
  3
SW_CENTERMARKSYMBOL_1
  1

  0
LINE
  5
EC
330
E9
100
AcDbEntity
  8
FORMAT
 62
     0
100
AcDbLine
 10
0.0
 20
0.0
 30
0.0
 11
0.0
 21
2.5
 31
0.0
  0
LINE
  5
ED
330
E9
100
AcDbEntity
  8
FORMAT
 62
     0
100
AcDbLine
 10
0.0
 20
0.0
 30
0.0
 11
-2.5
 21
0.0
 31
0.0
  0
LINE
  5
EE
330
E9
100
AcDbEntity
  8
FORMAT
 62
     0
100
AcDbLine
 10
0.0
 20
0.0
 30
0.0
 11
0.0
 21
-2.5
 31
0.0
  0
LINE
  5
EF
330
E9
100
AcDbEntity
  8
FORMAT
 62
     0
100
AcDbLine
 10
0.0
 20
0.0
 30
0.0
 11
2.5
 21
0.0
 31
0.0
  0
LINE
  5
F0
330
E9
100
AcDbEntity
  8
FORMAT
 62
     0
100
AcDbLine
 10
0.0
 20
5.0
 30
0.0
 11
0.0
 21
9.5
 31
0.0
  0
LINE
  5
F1
330
E9
100
AcDbEntity
  8
FORMAT
 62
     0
100
AcDbLine
 10
-5.0
 20
0.0
 30
0.0
 11
-9.5
 21
0.0
 31
0.0
  0
LINE
  5
F2
330
E9
100
AcDbEntity
  8
FORMAT
 62
     0
100
AcDbLine
 10
0.0
 20
-5.0
 30
0.0
 11
0.0
 21
-9.5
 31
0.0
  0
LINE
  5
F3
330
E9
100
AcDbEntity
  8
FORMAT
 62
     0
100
AcDbLine
 10
5.0
 20
0.0
 30
0.0
 11
9.5
 21
0.0
 31
0.0
  0
ENDBLK
  5
EB
330
E9
100
AcDbEntity
  8
0
100
AcDbBlockEnd
  0
BLOCK
  5
F6
330
F5
100
AcDbEntity
  8
0
100
AcDbBlockBegin
  2
SW_CENTERMARKSYMBOL_2
 70
     0
 10
0.0
 20
0.0
 30
0.0
  3
SW_CENTERMARKSYMBOL_2
  1

  0
LINE
  5
F8
330
F5
100
AcDbEntity
  8
FORMAT
 62
     0
100
AcDbLine
 10
0.0
 20
0.0
 30
0.0
 11
0.0
 21
2.5
 31
0.0
  0
LINE
  5
F9
330
F5
100
AcDbEntity
  8
FORMAT
 62
     0
100
AcDbLine
 10
0.0
 20
0.0
 30
0.0
 11
-2.5
 21
0.0
 31
0.0
  0
LINE
  5
FA
330
F5
100
AcDbEntity
  8
FORMAT
 62
     0
100
AcDbLine
 10
0.0
 20
0.0
 30
0.0
 11
0.0
 21
-2.5
 31
0.0
  0
LINE
  5
FB
330
F5
100
AcDbEntity
  8
FORMAT
 62
     0
100
AcDbLine
 10
0.0
 20
0.0
 30
0.0
 11
2.5
 21
0.0
 31
0.0
  0
LINE
  5
FC
330
F5
100
AcDbEntity
  8
FORMAT
 62
     0
100
AcDbLine
 10
0.0
 20
5.0
 30
0.0
 11
0.0
 21
9.5
 31
0.0
  0
LINE
  5
FD
330
F5
100
AcDbEntity
  8
FORMAT
 62
     0
100
AcDbLine
 10
-5.0
 20
0.0
 30
0.0
 11
-9.5
 21
0.0
 31
0.0
  0
LINE
  5
FE
330
F5
100
AcDbEntity
  8
FORMAT
 62
     0
100
AcDbLine
 10
0.0
 20
-5.0
 30
0.0
 11
0.0
 21
-9.5
 31
0.0
  0
LINE
  5
FF
330
F5
100
AcDbEntity
  8
FORMAT
 62
     0
100
AcDbLine
 10
5.0
 20
0.0
 30
0.0
 11
9.5
 21
0.0
 31
0.0
  0
ENDBLK
  5
F7
330
F5
100
AcDbEntity
  8
0
100
AcDbBlockEnd
  0
ENDSEC
  0
SECTION
  2
ENTITIES
  0
LINE
  5
83
330
1F
100
AcDbEntity
  8
0
  6
Continuous
 62
     7
370
    25
100
AcDbLine
 10
102.6070913462
 20
415.435652439
 30
0.0
 11
102.6070913462
 21
420.8949519231
 31
0.0
  0
LINE
  5
84
330
1F
100
AcDbEntity
  8
0
  6
Continuous
 62
     7
370
    25
100
AcDbLine
 10
88.6070913462
 20
420.8949519231
 30
0.0
 11
88.6070913462
 21
413.9102836917
 31
0.0
  0
LINE
  5
85
330
1F
100
AcDbEntity
  8
0
  6
Continuous
 62
     7
370
    25
100
AcDbLine
 10
172.6070913462
 20
413.9093329246
 30
0.0
 11
172.6070913462
 21
420.8949519231
 31
0.0
  0
LINE
  5
86
330
1F
100
AcDbEntity
  8
0
  6
Continuous
 62
     7
370
    25
100
AcDbLine
 10
158.6070913462
 20
420.8949519231
 30
0.0
 11
158.6070913462
 21
415.4303826061
 31
0.0
  0
CIRCLE
  5
87
330
1F
100
AcDbEntity
  8
0
  6
Continuous
 62
     7
370
    25
100
AcDbCircle
 10
130.6070913462
 20
95.8949519231
 30
0.0
 40
320.5
  0
ARC
  5
88
330
1F
100
AcDbEntity
  8
0
  6
Continuous
 62
     7
370
    25
100
AcDbCircle
 10
130.6070913462
 20
95.8949519231
 30
0.0
 40
322.4999999999998
100
AcDbArc
 50
97.4830311635
 51
180.0
  0
ARC
  5
89
330
1F
100
AcDbEntity
  8
0
  6
Continuous
 62
     7
370
    25
100
AcDbCircle
 10
130.6070913462
 20
95.8949519231
 30
0.0
 40
322.4999999999998
100
AcDbArc
 50
85.0192117549
 51
94.9807882451
  0
ARC
  5
8A
330
1F
100
AcDbEntity
  8
0
  6
Continuous
 62
     7
370
    25
100
AcDbCircle
 10
130.6070913462
 20
95.8949519231
 30
0.0
 40
322.4999999999999
100
AcDbArc
 50
180.0
 51
82.5169688365
  0
SPLINE
  5
8B
330
1F
100
AcDbEntity
  8
0
  6
Continuous
 62
     7
370
    25
100
AcDbSpline
210
0.0
220
0.0
230
1.0
 70
     8
 71
     3
 72
    13
 73
     9
 74
     0
 42
0.00000001
 43
0.00000001
 40
0.0
 40
0.0
 40
0.0
 40
0.0
 40
0.1731415747080744
 40
0.3462775390570647
 40
0.5194651020615838
 40
0.6920298467110706
 40
0.8633899059595905
 40
0.9999999999999999
 40
0.9999999999999999
 40
0.9999999999999999
 40
0.9999999999999999
 10
98.28844244124174
 20
414.8882377391392
 30
0.0
 10
97.52703773237988
 20
414.8043474586446
 30
0.0
 10
96.00425298668439
 20
414.6365696159778
 30
0.0
 10
93.59563716796487
 20
414.3721903456619
 30
0.0
 10
91.43119098684919
 20
414.1361714813657
 30
0.0
 10
89.76263955303828
 20
413.963916508641
 30
0.0
 10
88.74741953437648
 20
413.8760140463339
 30
0.0
 10
88.69317547036981
 20
413.8997533554751
 30
0.0
 10
88.66911376631849
 20
413.9102836916767
 30
0.0
  0
SPLINE
  5
8C
330
1F
100
AcDbEntity
  8
0
  6
Continuous
 62
     7
370
    25
100
AcDbSpline
210
0.0
220
0.0
230
1.0
 70
     8
 71
     3
 72
    11
 73
     7
 74
     0
 42
0.00000001
 43
0.00000001
 40
0.0
 40
0.0
 40
0.0
 40
0.0
 40
0.2508471946272254
 40
0.5356403296089964
 40
0.8213618305043076
 40
1.0
 40
1.0
 40
1.0
 40
1.0
 10
102.5663535466516
 20
415.4356524389585
 30
0.0
 10
102.5235812574219
 20
415.416892904874
 30
0.0
 10
102.4322485114643
 20
415.3768351994837
 30
0.0
 10
101.3462793351277
 20
415.2347884940564
 30
0.0
 10
99.87202612408971
 20
415.0640192532592
 30
0.0
 10
98.72839491510551
 20
414.9370734987105
 30
0.0
 10
98.28844244124174
 20
414.8882377391392
 30
0.0
  0
SPLINE
  5
8D
330
1F
100
AcDbEntity
  8
0
  6
Continuous
 62
     7
370
    25
100
AcDbSpline
210
0.0
220
0.0
230
1.0
 70
     8
 71
     3
 72
    14
 73
    10
 74
     0
 42
0.00000001
 43
0.00000001
 40
0.0
 40
0.0
 40
0.0
 40
0.0
 40
0.1535995219614371
 40
0.3071781674486678
 40
0.4611853866003218
 40
0.6151588694619341
 40
0.7686329338597423
 40
0.921433675099583
 40
0.9999999999999999
 40
0.9999999999999999
 40
0.9999999999999999
 40
0.9999999999999999
 10
169.7683805172712
 20
414.1395542092907
 30
0.0
 10
169.086138833139
 20
414.2131707571339
 30
0.0
 10
167.7217481917318
 20
414.3603938472294
 30
0.0
 10
165.3097979960714
 20
414.6258750625357
 30
0.0
 10
162.965509233457
 20
414.8832299341646
 30
0.0
 10
160.8999260381726
 20
415.1133954743241
 30
0.0
 10
159.4151537991783
 20
415.2914929135966
 30
0.0
 10
158.6359126646175
 20
415.4019156086057
 30
0.0
 10
158.6883826636362
 20
415.423166386655
 30
0.0
 10
158.7062001303103
 20
415.4303826061474
 30
0.0
  0
SPLINE
  5
8E
330
1F
100
AcDbEntity
  8
0
  6
Continuous
 62
     7
370
    25
100
AcDbSpline
210
0.0
220
0.0
230
1.0
 70
     8
 71
     3
 72
    11
 73
     7
 74
     0
 42
0.00000001
 43
0.00000001
 40
0.0
 40
0.0
 40
0.0
 40
0.0
 40
0.0626653230941937
 40
0.4209323887881593
 40
0.7785380012274001
 40
0.9999999999999999
 40
0.9999999999999999
 40
0.9999999999999999
 40
0.9999999999999999
 10
172.5502206560533
 20
413.9093329245807
 30
0.0
 10
172.5682025484392
 20
413.9040390973861
 30
0.0
 10
172.6889896208291
 20
413.8684796648836
 30
0.0
 10
172.1436809087512
 20
413.9032547641414
 30
0.0
 10
171.1074136521252
 20
413.9983092449713
 30
0.0
 10
170.1388164771269
 20
414.1004795870349
 30
0.0
 10
169.7683805172712
 20
414.1395542092907
 30
0.0
  0
CIRCLE
  5
8F
330
1F
100
AcDbEntity
  8
0
  6
Continuous
 62
     7
370
    25
100
AcDbCircle
 10
130.6070913462
 20
95.8949519231
 30
0.0
 40
280.0
  0
LINE
  5
90
330
1F
100
AcDbEntity
  8
0
  6
Continuous
 62
     7
370
    25
100
AcDbLine
 10
95.6070913462
 20
420.8949519231
 30
0.0
 11
88.6070913462
 21
420.8949519231
 31
0.0
  0
LINE
  5
91
330
1F
100
AcDbEntity
  8
0
  6
Continuous
 62
     7
370
    25
100
AcDbLine
 10
102.6070913462
 20
420.8949519231
 30
0.0
 11
95.6070913462
 21
420.8949519231
 31
0.0
  0
LINE
  5
92
330
1F
100
AcDbEntity
  8
0
  6
Continuous
 62
     7
370
    25
100
AcDbLine
 10
172.6070913462
 20
420.8949519231
 30
0.0
 11
158.6070913462
 21
420.8949519231
 31
0.0
  0
INSERT
  5
9E
330
1F
100
AcDbEntity
  8
FORMAT
 62
     7
100
AcDbBlockReference
  2
SW_CENTERMARKSYMBOL_0
 10
130.6070913462
 20
95.8949519231
 30
0.0
  0
ARC
  5
9F
330
1F
100
AcDbEntity
  8
0
  6
Continuous
 62
     7
370
    25
100
AcDbCircle
 10
991.4234184998
 20
-7021.667548077
 30
0.0
 40
7440.062500000035
100
AcDbArc
 50
90.0
 51
91.1821844528
  0
LINE
  5
A0
330
1F
100
AcDbEntity
  8
0
  6
Continuous
 62
     7
370
    25
100
AcDbLine
 10
823.9234184998
 20
416.5092281167
 30
0.0
 11
818.9234184998
 21
416.3949519231
 31
0.0
  0
ARC
  5
A1
330
1F
100
AcDbEntity
  8
0
  6
Continuous
 62
     7
370
    25
100
AcDbCircle
 10
991.4234184998
 20
7213.4574519231
 30
0.0
 40
7440.062500000033
100
AcDbArc
 50
268.6714617419
 51
270.0
  0
LINE
  5
A2
330
1F
100
AcDbEntity
  8
0
  6
Continuous
 62
     7
370
    25
100
AcDbLine
 10
991.4234184998
 20
-226.6050480769
 30
0.0
 11
1036.4234184998
 21
-226.6050480769
 31
0.0
  0
LINE
  5
A3
330
1F
100
AcDbEntity
  8
0
  6
Continuous
 62
     7
370
    25
100
AcDbLine
 10
1036.4234184998
 20
418.3949519231
 30
0.0
 11
991.4234184998
 21
418.3949519231
 31
0.0
  0
LINE
  5
A4
330
1F
100
AcDbEntity
  8
0
  6
Continuous
 62
     7
370
    25
100
AcDbLine
 10
1208.9234184998
 20
416.3949519231
 30
0.0
 11
1203.9234184998
 21
416.5092281167
 31
0.0
  0
ARC
  5
A5
330
1F
100
AcDbEntity
  8
0
  6
Continuous
 62
     7
370
    25
100
AcDbCircle
 10
1036.4234184998
 20
-7021.667548077
 30
0.0
 40
7440.062500000035
100
AcDbArc
 50
88.8178155472
 51
90.0
  0
ARC
  5
A6
330
1F
100
AcDbEntity
  8
0
  6
Continuous
 62
     7
370
    25
100
AcDbCircle
 10
1036.4234184998
 20
7213.4574519231
 30
0.0
 40
7440.062500000033
100
AcDbArc
 50
270.0
 51
271.3285382581
  0
LINE
  5
A7
330
1F
100
AcDbEntity
  8
0
  6
Continuous
 62
     7
370
    25
100
AcDbLine
 10
837.9234184998
 20
414.8951315269
 30
0.0
 11
837.9234184998
 21
420.8949519231
 31
0.0
  0
LINE
  5
A8
330
1F
100
AcDbEntity
  8
0
  6
Continuous
 62
     7
370
    25
100
AcDbLine
 10
823.9234184998
 20
420.8949519231
 30
0.0
 11
823.9234184998
 21
414.5931716922
 31
0.0
  0
LINE
  5
A9
330
1F
100
AcDbEntity
  8
0
  6
Continuous
 62
     7
370
    25
100
AcDbLine
 10
1203.9234184998
 20
414.5938287444
 30
0.0
 11
1203.9234184998
 21
420.8949519231
 31
0.0
  0
LINE
  5
AA
330
1F
100
AcDbEntity
  8
0
  6
Continuous
 62
     7
370
    25
100
AcDbLine
 10
1189.9234184998
 20
420.8949519231
 30
0.0
 11
1189.9234184998
 21
414.8925968653
 31
0.0
  0
LINE
  5
AB
330
1F
100
AcDbEntity
  8
0
  6
Continuous
 62
     7
370
    25
100
AcDbLine
 10
818.9234184998
 20
95.8949519231
 30
0.0
 11
818.9234184998
 21
416.3949519231
 31
0.0
  0
LINE
  5
AC
330
1F
100
AcDbEntity
  8
0
  6
Continuous
 62
     7
370
    25
100
AcDbLine
 10
818.9234184998
 20
-224.6050480769
 30
0.0
 11
818.9234184998
 21
95.8949519231
 31
0.0
  0
SPLINE
  5
AD
330
1F
100
AcDbEntity
  8
0
  6
Continuous
 62
     7
370
    25
100
AcDbSpline
210
0.0
220
0.0
230
1.0
 70
     8
 71
     3
 72
    17
 73
    13
 74
     0
 42
0.00000001
 43
0.00000001
 40
0.0
 40
0.0
 40
0.0
 40
0.0
 40
0.0877675296085868
 40
0.1960615147898751
 40
0.3044808531485885
 40
0.4124234415097221
 40
0.5194880887749451
 40
0.62578767300748
 40
0.7318932979733902
 40
0.8384519830391282
 40
0.9457953904013225
 40
1.0
 40
1.0
 40
1.0
 40
1.0
 10
837.8630168385772
 20
414.8951315269218
 30
0.0
 10
837.8361778326827
 20
414.8233478876305
 30
0.0
 10
837.7762229020312
 20
414.6629923538777
 30
0.0
 10
836.7414093411122
 20
414.3963091363266
 30
0.0
 10
835.0587747684294
 20
414.1458477823182
 30
0.0
 10
832.8834264888727
 20
413.9631391978472
 30
0.0
 10
830.5011503976758
 20
413.8769425124453
 30
0.0
 10
828.1802563647326
 20
413.8971386652415
 30
0.0
 10
826.1609976027444
 20
414.016475934685
 30
0.0
 10
824.7090415157353
 20
414.2142348709032
 30
0.0
 10
823.9473949591588
 20
414.4198107955395
 30
0.0
 10
824.0043617083244
 20
414.5496173685978
 30
0.0
 10
824.0234759039469
 20
414.5931716922492
 30
0.0
  0
LINE
  5
AE
330
1F
100
AcDbEntity
  8
0
  6
Continuous
 62
     7
370
    25
100
AcDbLine
 10
1208.9234184998
 20
95.8949519231
 30
0.0
 11
1208.9234184998
 21
416.3949519231
 31
0.0
  0
LINE
  5
AF
330
1F
100
AcDbEntity
  8
0
  6
Continuous
 62
     7
370
    25
100
AcDbLine
 10
1208.9234184998
 20
-224.6050480769
 30
0.0
 11
1208.9234184998
 21
95.8949519231
 31
0.0
  0
SPLINE
  5
B0
330
1F
100
AcDbEntity
  8
0
  6
Continuous
 62
     7
370
    25
100
AcDbSpline
210
0.0
220
0.0
230
1.0
 70
     8
 71
     3
 72
    17
 73
    13
 74
     0
 42
0.00000001
 43
0.00000001
 40
0.0
 40
0.0
 40
0.0
 40
0.0
 40
0.0911427671469811
 40
0.1993856386958583
 40
0.3072392464544695
 40
0.4143399213531718
 40
0.5207017902803306
 40
0.6267961785349033
 40
0.7332928346240755
 40
0.8406378987739767
 40
0.9487777264595508
 40
1.0
 40
1.0
 40
1.0
 40
1.0
 10
1203.870218889387
 20
414.5938287443953
 30
0.0
 10
1203.836557880453
 20
414.5204216435149
 30
0.0
 10
1203.762920421601
 20
414.3598348832922
 30
0.0
 10
1202.698040633896
 20
414.1366507808409
 30
0.0
 10
1200.998691206529
 20
413.9619704704772
 30
0.0
 10
1198.823238334676
 20
413.8771046390359
 30
0.0
 10
1196.45094008242
 20
413.8970059693629
 30
0.0
 10
1194.140909457793
 20
414.019609822796
 30
0.0
 10
1192.127699104499
 20
414.2280231162354
 30
0.0
 10
1190.684655033785
 20
414.4902818095358
 30
0.0
 10
1189.937087330691
 20
414.7273830498315
 30
0.0
 10
1190.002849696092
 20
414.8524104685015
 30
0.0
 10
1190.023987079719
 20
414.8925968653291
 30
0.0
  0
LINE
  5
B1
330
1F
100
AcDbEntity
  8
0
  6
Continuous
 62
     7
370
    25
100
AcDbLine
 10
837.9234184998
 20
420.8949519231
 30
0.0
 11
823.9234184998
 21
420.8949519231
 31
0.0
  0
LINE
  5
B2
330
1F
100
AcDbEntity
  8
0
  6
Continuous
 62
     7
370
    25
100
AcDbLine
 10
1203.9234184998
 20
420.8949519231
 30
0.0
 11
1189.9234184998
 21
420.8949519231
 31
0.0
  0
LINE
  5
B3
330
1F
100
AcDbEntity
  8
0
  6
Continuous
 62
     1
370
    25
100
AcDbLine
 10
991.4234184998
 20
95.8949519231
 30
0.0
 11
991.4234184998
 21
418.3949519231
 31
0.0
  0
LINE
  5
B4
330
1F
100
AcDbEntity
  8
0
  6
Continuous
 62
     1
370
    25
100
AcDbLine
 10
991.4234184998
 20
-226.6050480769
 30
0.0
 11
991.4234184998
 21
95.8949519231
 31
0.0
  0
LINE
  5
B5
330
1F
100
AcDbEntity
  8
0
  6
Continuous
 62
     1
370
    25
100
AcDbLine
 10
1036.4234184998
 20
95.8949519231
 30
0.0
 11
1036.4234184998
 21
418.3949519231
 31
0.0
  0
LINE
  5
B6
330
1F
100
AcDbEntity
  8
0
  6
Continuous
 62
     1
370
    25
100
AcDbLine
 10
1036.4234184998
 20
-226.6050480769
 30
0.0
 11
1036.4234184998
 21
95.8949519231
 31
0.0
  0
ARC
  5
B7
330
1F
100
AcDbEntity
  8
0
  6
Continuous
 62
     7
370
    25
100
AcDbCircle
 10
7248.1695913462
 20
837.5580529454
 30
0.0
 40
7440.062500000035
100
AcDbArc
 50
180.0
 51
181.3285382581
  0
ARC
  5
B8
330
1F
100
AcDbEntity
  8
0
  6
Continuous
 62
     7
370
    25
100
AcDbCircle
 10
-6986.9554086539
 20
837.5580529454
 30
0.0
 40
7440.062500000033
100
AcDbArc
 50
358.6714617419
 51
0.0
  0
LINE
  5
B9
330
1F
100
AcDbEntity
  8
0
  6
Continuous
 62
     7
370
    25
100
AcDbLine
 10
453.1070913462
 20
837.5580529454
 30
0.0
 11
453.1070913462
 21
882.5580529454
 31
0.0
  0
LINE
  5
BA
330
1F
100
AcDbEntity
  8
0
  6
Continuous
 62
     7
370
    25
100
AcDbLine
 10
-191.8929086538
 20
882.5580529454
 30
0.0
 11
-191.8929086538
 21
837.5580529454
 31
0.0
  0
ARC
  5
BB
330
1F
100
AcDbEntity
  8
0
  6
Continuous
 62
     7
370
    25
100
AcDbCircle
 10
7248.1695913462
 20
882.5580529454
 30
0.0
 40
7440.062500000034
100
AcDbArc
 50
178.6714617419
 51
180.0
  0
ARC
  5
BC
330
1F
100
AcDbEntity
  8
0
  6
Continuous
 62
     7
370
    25
100
AcDbCircle
 10
-6986.9554086539
 20
882.5580529454
 30
0.0
 40
7440.062500000033
100
AcDbArc
 50
0.0
 51
1.3285382581
  0
LINE
  5
BD
330
1F
100
AcDbEntity
  8
0
  6
Continuous
 62
     7
370
    25
100
AcDbLine
 10
451.1070913462
 20
665.0580529454
 30
0.0
 11
-189.8929086538
 21
665.0580529454
 31
0.0
  0
LINE
  5
BE
330
1F
100
AcDbEntity
  8
0
  6
Continuous
 62
     7
370
    25
100
AcDbLine
 10
451.1070913462
 20
1055.0580529454
 30
0.0
 11
-189.8929086538
 21
1055.0580529454
 31
0.0
  0
LINE
  5
BF
330
1F
100
AcDbEntity
  8
0
  6
Continuous
 62
     1
370
    25
100
AcDbLine
 10
453.1070913462
 20
837.5580529454
 30
0.0
 11
-191.8929086538
 21
837.5580529454
 31
0.0
  0
LINE
  5
C0
330
1F
100
AcDbEntity
  8
0
  6
Continuous
 62
     1
370
    25
100
AcDbLine
 10
453.1070913462
 20
882.5580529454
 30
0.0
 11
-191.8929086538
 21
882.5580529454
 31
0.0
  0
ARC
  5
C1
330
1F
100
AcDbEntity
  8
0
  6
Continuous
 62
     7
370
    25
100
AcDbCircle
 10
-646.9466780719
 20
7213.4574519231
 30
0.0
 40
7440.062500000033
100
AcDbArc
 50
270.0
 51
271.3285382581
  0
LINE
  5
C2
330
1F
100
AcDbEntity
  8
0
  6
Continuous
 62
     7
370
    25
100
AcDbLine
 10
-474.4466780719
 20
416.3949519231
 30
0.0
 11
-479.4466780719
 21
416.5092281167
 31
0.0
  0
ARC
  5
C3
330
1F
100
AcDbEntity
  8
0
  6
Continuous
 62
     7
370
    25
100
AcDbCircle
 10
-646.9466780719
 20
-7021.667548077
 30
0.0
 40
7440.062500000035
100
AcDbArc
 50
88.8178155472
 51
90.0
  0
LINE
  5
C4
330
1F
100
AcDbEntity
  8
0
  6
Continuous
 62
     7
370
    25
100
AcDbLine
 10
-646.9466780719
 20
418.3949519231
 30
0.0
 11
-691.9466780719
 21
418.3949519231
 31
0.0
  0
LINE
  5
C5
330
1F
100
AcDbEntity
  8
0
  6
Continuous
 62
     7
370
    25
100
AcDbLine
 10
-691.9466780719
 20
-226.6050480769
 30
0.0
 11
-646.9466780719
 21
-226.6050480769
 31
0.0
  0
ARC
  5
C6
330
1F
100
AcDbEntity
  8
0
  6
Continuous
 62
     7
370
    25
100
AcDbCircle
 10
-691.9466780719
 20
7213.4574519231
 30
0.0
 40
7440.062500000033
100
AcDbArc
 50
268.6714617419
 51
270.0
  0
ARC
  5
C7
330
1F
100
AcDbEntity
  8
0
  6
Continuous
 62
     7
370
    25
100
AcDbCircle
 10
-691.9466780719
 20
-7021.667548077
 30
0.0
 40
7440.062500000035
100
AcDbArc
 50
90.0
 51
91.1821844528
  0
LINE
  5
C8
330
1F
100
AcDbEntity
  8
0
  6
Continuous
 62
     7
370
    25
100
AcDbLine
 10
-859.4466780719
 20
416.5092281167
 30
0.0
 11
-864.4466780719
 21
416.3949519231
 31
0.0
  0
LINE
  5
C9
330
1F
100
AcDbEntity
  8
0
  6
Continuous
 62
     7
370
    25
100
AcDbLine
 10
-479.4466780719
 20
414.5938674321
 30
0.0
 11
-479.4466780719
 21
420.8949519231
 31
0.0
  0
LINE
  5
CA
330
1F
100
AcDbEntity
  8
0
  6
Continuous
 62
     7
370
    25
100
AcDbLine
 10
-493.4466780719
 20
420.8949519231
 30
0.0
 11
-493.4466780719
 21
414.8962783652
 31
0.0
  0
LINE
  5
CB
330
1F
100
AcDbEntity
  8
0
  6
Continuous
 62
     7
370
    25
100
AcDbLine
 10
-845.4466780719
 20
414.8951135319
 30
0.0
 11
-845.4466780719
 21
420.8949519231
 31
0.0
  0
LINE
  5
CC
330
1F
100
AcDbEntity
  8
0
  6
Continuous
 62
     7
370
    25
100
AcDbLine
 10
-859.4466780719
 20
420.8949519231
 30
0.0
 11
-859.4466780719
 21
414.5937347686
 31
0.0
  0
LINE
  5
CD
330
1F
100
AcDbEntity
  8
0
  6
Continuous
 62
     7
370
    25
100
AcDbLine
 10
-474.4466780719
 20
416.3949519231
 30
0.0
 11
-474.4466780719
 21
-224.6050480769
 31
0.0
  0
SPLINE
  5
CE
330
1F
100
AcDbEntity
  8
0
  6
Continuous
 62
     7
370
    25
100
AcDbSpline
210
0.0
220
0.0
230
1.0
 70
     8
 71
     3
 72
     9
 73
     5
 74
     0
 42
0.00000001
 43
0.00000001
 40
0.0
 40
0.0
 40
0.0
 40
0.0
 40
0.5191723289327216
 40
1.0
 40
1.0
 40
1.0
 40
1.0
 10
-492.0028021186903
 20
414.3708798517431
 30
0.0
 10
-492.4355510405201
 20
414.462488099721
 30
0.0
 10
-493.2690872243907
 20
414.6389386593382
 30
0.0
 10
-493.3705143378145
 20
414.8127196541833
 30
0.0
 10
-493.4192833005452
 20
414.8962783652106
 30
0.0
  0
SPLINE
  5
CF
330
1F
100
AcDbEntity
  8
0
  6
Continuous
 62
     7
370
    25
100
AcDbSpline
210
0.0
220
0.0
230
1.0
 70
     8
 71
     3
 72
    15
 73
    11
 74
     0
 42
0.00000001
 43
0.00000001
 40
0.0
 40
0.0
 40
0.0
 40
0.0
 40
0.104435135559972
 40
0.2412060359248055
 40
0.3775309123533787
 40
0.5129272677470096
 40
0.6473664860496491
 40
0.7814055068265315
 40
0.9158898939098743
 40
1.0
 40
1.0
 40
1.0
 40
1.0
 10
-479.5188544508151
 20
414.5938674320829
 30
0.0
 10
-479.5352528236068
 20
414.5272677255348
 30
0.0
 10
-479.5731269210118
 20
414.3734473553684
 30
0.0
 10
-480.5654658699499
 20
414.1533716261802
 30
0.0
 10
-482.2168294729018
 20
413.9727097625237
 30
0.0
 10
-484.365817569329
 20
413.8800893757393
 30
0.0
 10
-486.7330699521017
 20
413.8915154590741
 30
0.0
 10
-489.0518300940446
 20
414.0069241959023
 30
0.0
 10
-490.8545629344786
 20
414.1824335703662
 30
0.0
 10
-491.6837500797195
 20
414.3185177906529
 30
0.0
 10
-492.0028021186903
 20
414.3708798517431
 30
0.0
  0
LINE
  5
D0
330
1F
100
AcDbEntity
  8
0
  6
Continuous
 62
     7
370
    25
100
AcDbLine
 10
-864.4466780719
 20
416.3949519231
 30
0.0
 11
-864.4466780719
 21
-224.6050480769
 31
0.0
  0
SPLINE
  5
D1
330
1F
100
AcDbEntity
  8
0
  6
Continuous
 62
     7
370
    25
100
AcDbSpline
210
0.0
220
0.0
230
1.0
 70
     8
 71
     3
 72
     9
 73
     5
 74
     0
 42
0.00000001
 43
0.00000001
 40
0.0
 40
0.0
 40
0.0
 40
0.0
 40
0.5316568827320358
 40
1.0
 40
1.0
 40
1.0
 40
1.0
 10
-858.0755032099335
 20
414.1395542092907
 30
0.0
 10
-858.4972436686669
 20
414.2131375361495
 30
0.0
 10
-859.2905005086162
 20
414.3515413248501
 30
0.0
 10
-859.3684517705831
 20
414.5164846823583
 30
0.0
 10
-859.4049597076075
 20
414.5937347685863
 30
0.0
  0
SPLINE
  5
D2
330
1F
100
AcDbEntity
  8
0
  6
Continuous
 62
     7
370
    25
100
AcDbSpline
210
0.0
220
0.0
230
1.0
 70
     8
 71
     3
 72
    15
 73
    11
 74
     0
 42
0.00000001
 43
0.00000001
 40
0.0
 40
0.0
 40
0.0
 40
0.0
 40
0.1096338059803876
 40
0.2454674316697987
 40
0.3814602358044141
 40
0.5168574572821457
 40
0.6511541889300931
 40
0.7844896647115001
 40
0.9175789688715913
 40
1.0
 40
1.0
 40
1.0
 40
1.0
 10
-845.507458643501
 20
414.8951135319241
 30
0.0
 10
-845.5337350332999
 20
414.8236463655645
 30
0.0
 10
-845.5925672325454
 20
414.6636331140121
 30
0.0
 10
-846.6240418324704
 20
414.3972267640595
 30
0.0
 10
-848.3047654974447
 20
414.1465865486354
 30
0.0
 10
-850.4785597919955
 20
413.9636377695409
 30
0.0
 10
-852.8620730392372
 20
413.8769212949613
 30
0.0
 10
-855.1780787987576
 20
413.8973894589718
 30
0.0
 10
-856.9579640259146
 20
413.9991454871544
 30
0.0
 10
-857.7663423015639
 20
414.1007109287154
 30
0.0
 10
-858.0755032099335
 20
414.1395542092907
 30
0.0
  0
LINE
  5
D3
330
1F
100
AcDbEntity
  8
0
  6
Continuous
 62
     7
370
    25
100
AcDbLine
 10
-479.4466780719
 20
420.8949519231
 30
0.0
 11
-493.4466780719
 21
420.8949519231
 31
0.0
  0
LINE
  5
D4
330
1F
100
AcDbEntity
  8
0
  6
Continuous
 62
     7
370
    25
100
AcDbLine
 10
-845.4466780719
 20
420.8949519231
 30
0.0
 11
-859.4466780719
 21
420.8949519231
 31
0.0
  0
LINE
  5
D5
330
1F
100
AcDbEntity
  8
0
  6
Continuous
 62
     1
370
    25
100
AcDbLine
 10
-646.9466780719
 20
418.3949519231
 30
0.0
 11
-646.9466780719
 21
-226.6050480769
 31
0.0
  0
LINE
  5
D6
330
1F
100
AcDbEntity
  8
0
  6
Continuous
 62
     1
370
    25
100
AcDbLine
 10
-691.9466780719
 20
418.3949519231
 30
0.0
 11
-691.9466780719
 21
-226.6050480769
 31
0.0
  0
ARC
  5
D7
330
1F
100
AcDbEntity
  8
0
  6
Continuous
 62
     7
370
    25
100
AcDbCircle
 10
-6986.9554086539
 20
-723.8122624275
 30
0.0
 40
7440.062500000033
100
AcDbArc
 50
0.0
 51
1.3285382581
  0
ARC
  5
D8
330
1F
100
AcDbEntity
  8
0
  6
Continuous
 62
     7
370
    25
100
AcDbCircle
 10
7248.1695913462
 20
-723.8122624275
 30
0.0
 40
7440.062500000035
100
AcDbArc
 50
178.6714617419
 51
180.0
  0
LINE
  5
D9
330
1F
100
AcDbEntity
  8
0
  6
Continuous
 62
     7
370
    25
100
AcDbLine
 10
-191.8929086538
 20
-723.8122624275
 30
0.0
 11
-191.8929086538
 21
-768.8122624275
 31
0.0
  0
LINE
  5
DA
330
1F
100
AcDbEntity
  8
0
  6
Continuous
 62
     7
370
    25
100
AcDbLine
 10
453.1070913462
 20
-768.8122624275
 30
0.0
 11
453.1070913462
 21
-723.8122624275
 31
0.0
  0
ARC
  5
DB
330
1F
100
AcDbEntity
  8
0
  6
Continuous
 62
     7
370
    25
100
AcDbCircle
 10
-6986.9554086539
 20
-768.8122624275
 30
0.0
 40
7440.062500000033
100
AcDbArc
 50
358.6714617419
 51
0.0
  0
ARC
  5
DC
330
1F
100
AcDbEntity
  8
0
  6
Continuous
 62
     7
370
    25
100
AcDbCircle
 10
7248.1695913462
 20
-768.8122624275
 30
0.0
 40
7440.062500000034
100
AcDbArc
 50
180.0
 51
181.3285382581
  0
CIRCLE
  5
DD
330
1F
100
AcDbEntity
  8
0
  6
Continuous
 62
     7
370
    25
100
AcDbCircle
 10
165.6070913462
 20
-563.3122624275
 30
0.0
 40
7.0
  0
CIRCLE
  5
DE
330
1F
100
AcDbEntity
  8
0
  6
Continuous
 62
     7
370
    25
100
AcDbCircle
 10
165.6070913462
 20
-563.3122624275
 30
0.0
 40
5.0
  0
CIRCLE
  5
DF
330
1F
100
AcDbEntity
  8
0
  6
Continuous
 62
     7
370
    25
100
AcDbCircle
 10
95.6070913462
 20
-563.3122624275
 30
0.0
 40
5.0
  0
CIRCLE
  5
E0
330
1F
100
AcDbEntity
  8
0
  6
Continuous
 62
     7
370
    25
100
AcDbCircle
 10
95.6070913462
 20
-563.3122624275
 30
0.0
 40
7.0
  0
CIRCLE
  5
E1
330
1F
100
AcDbEntity
  8
0
  6
Continuous
 62
     7
370
    25
100
AcDbCircle
 10
165.6070913462
 20
-929.3122624275
 30
0.0
 40
7.0
  0
CIRCLE
  5
E2
330
1F
100
AcDbEntity
  8
0
  6
Continuous
 62
     7
370
    25
100
AcDbCircle
 10
165.6070913462
 20
-929.3122624275
 30
0.0
 40
5.0
  0
CIRCLE
  5
E3
330
1F
100
AcDbEntity
  8
0
  6
Continuous
 62
     7
370
    25
100
AcDbCircle
 10
95.6070913462
 20
-929.3122624275
 30
0.0
 40
5.0
  0
CIRCLE
  5
E4
330
1F
100
AcDbEntity
  8
0
  6
Continuous
 62
     7
370
    25
100
AcDbCircle
 10
95.6070913462
 20
-929.3122624275
 30
0.0
 40
7.0
  0
LINE
  5
E5
330
1F
100
AcDbEntity
  8
0
  6
Continuous
 62
     7
370
    25
100
AcDbLine
 10
-189.8929086538
 20
-551.3122624275
 30
0.0
 11
451.1070913462
 21
-551.3122624275
 31
0.0
  0
LINE
  5
E6
330
1F
100
AcDbEntity
  8
0
  6
Continuous
 62
     7
370
    25
100
AcDbLine
 10
-189.8929086538
 20
-941.3122624275
 30
0.0
 11
451.1070913462
 21
-941.3122624275
 31
0.0
  0
LINE
  5
E7
330
1F
100
AcDbEntity
  8
0
  6
Continuous
 62
     1
370
    25
100
AcDbLine
 10
-191.8929086538
 20
-723.8122624275
 30
0.0
 11
453.1070913462
 21
-723.8122624275
 31
0.0
  0
LINE
  5
E8
330
1F
100
AcDbEntity
  8
0
  6
Continuous
 62
     1
370
    25
100
AcDbLine
 10
-191.8929086538
 20
-768.8122624275
 30
0.0
 11
453.1070913462
 21
-768.8122624275
 31
0.0
  0
INSERT
  5
F4
330
1F
100
AcDbEntity
  8
FORMAT
 62
     7
100
AcDbBlockReference
  2
SW_CENTERMARKSYMBOL_1
 10
130.6070913462
 20
-608.3122624275
 30
0.0
  0
INSERT
  5
100
330
1F
100
AcDbEntity
  8
FORMAT
 62
     7
100
AcDbBlockReference
  2
SW_CENTERMARKSYMBOL_2
 10
130.6070913462
 20
-884.3122624275
 30
0.0
  0
SPLINE
  5
101
330
1F
100
AcDbEntity
  8
0
  6
Continuous
 62
     7
370
    25
100
AcDbSpline
210
0.0
220
0.0
230
1.0
 70
     8
 71
     3
 72
    12
 73
     8
 74
     0
 42
0.00000001
 43
0.00000001
 40
0.0
 40
0.0
 40
0.0
 40
0.0
 40
0.1165440826891008
 40
0.3945369815340308
 40
0.6724964276011353
 40
0.9504144284885715
 40
1.0
 40
1.0
 40
1.0
 40
1.0
 10
818.2047693531715
 20
-407.9037026250673
 30
0.0
 10
813.3584317230766
 20
-410.690875238667
 30
0.0
 10
796.9521125350558
 20
-420.1262978239337
 30
0.0
 10
769.1511255378679
 20
-436.4919519498958
 30
0.0
 10
734.8219028780532
 20
-457.0182507525059
 30
0.0
 10
709.9816242530505
 20
-472.0641937839524
 30
0.0
 10
696.6333854097661
 20
-480.3404859136749
 30
0.0
 10
694.6123996633596
 20
-481.5935552229403
 30
0.0
  0
SPLINE
  5
102
330
1F
100
AcDbEntity
  8
0
  6
Continuous
 62
     7
370
    25
100
AcDbSpline
210
0.0
220
0.0
230
1.0
 70
     8
 71
     3
 72
    12
 73
     8
 74
     0
 42
0.00000001
 43
0.00000001
 40
0.0
 40
0.0
 40
0.0
 40
0.0
 40
0.0044181696197249
 40
0.2824573468512316
 40
0.560496690783931
 40
0.8385283567299088
 40
1.0
 40
1.0
 40
1.0
 40
1.0
 10
1015.029411841967
 20
-1036.634450665122
 30
0.0
 10
1015.216228980617
 20
-1036.534499221566
 30
0.0
 10
1027.159607771206
 20
-1030.14451830396
 30
0.0
 10
1050.728282619642
 20
-1017.209545628797
 30
0.0
 10
1085.710728603698
 20
-997.795118100932
 30
0.0
 10
1115.681178529252
 20
-980.8664813108852
 30
0.0
 10
1133.934032096886
 20
-970.3151532019803
 30
0.0
 10
1140.640052730021
 20
-966.4386402094714
 30
0.0
  0
LINE
  5
103
330
1F
100
AcDbEntity
  8
0
  6
Continuous
 62
     7
370
    25
100
AcDbLine
 10
850.0053487418
 20
-389.5012145369
 30
0.0
 11
818.1855435884
 21
-407.870397053
 31
0.0
  0
LINE
  5
104
330
1F
100
AcDbEntity
  8
0
  6
Continuous
 62
     7
370
    25
100
AcDbLine
 10
1140.6593348636
 20
-966.4719132885
 30
0.0
 11
1172.479140017
 21
-948.1027307725
 31
0.0
  0
SPLINE
  5
105
330
1F
100
AcDbEntity
  8
0
  6
Continuous
 62
     7
370
    25
100
AcDbSpline
210
0.0
220
0.0
230
1.0
 70
     8
 71
     3
 72
    12
 73
     8
 74
     0
 42
0.00000001
 43
0.00000001
 40
0.0
 40
0.0
 40
0.0
 40
0.0
 40
0.0044059809462057
 40
0.2824484358821966
 40
0.5604910575206284
 40
0.8385260010824453
 40
1.0
 40
1.0
 40
1.0
 40
1.0
 10
975.6337190681933
 20
-319.3395079988759
 30
0.0
 10
975.4474195242144
 20
-319.4391825537024
 30
0.0
 10
963.5045592520364
 20
-325.8288883767093
 30
0.0
 10
939.9364018477454
 20
-338.7635838700687
 30
0.0
 10
904.9539547560439
 20
-358.1780092498539
 30
0.0
 10
874.9834862617972
 20
-375.1066573083712
 30
0.0
 10
856.7306139165704
 20
-385.6579962648929
 30
0.0
 10
850.0245745065675
 20
-389.5345201090558
 30
0.0
  0
SPLINE
  5
106
330
1F
100
AcDbEntity
  8
0
  6
Continuous
 62
     7
370
    25
100
AcDbSpline
210
0.0
220
0.0
230
1.0
 70
     8
 71
     3
 72
    12
 73
     8
 74
     0
 42
0.00000001
 43
0.00000001
 40
0.0
 40
0.0
 40
0.0
 40
0.0
 40
0.1165455262681944
 40
0.3945407900519937
 40
0.6725026007729634
 40
0.9504229659638157
 40
1.0
 40
1.0
 40
1.0
 40
1.0
 10
1172.459857883416
 20
-948.0694576934615
 30
0.0
 10
1177.306214318371
 20
-945.2822742754663
 30
0.0
 10
1193.712552321605
 20
-935.8468409047755
 30
0.0
 10
1221.513558228412
 20
-919.4811761287724
 30
0.0
 10
1255.842780196705
 20
-898.9548762429207
 30
0.0
 10
1280.682693063339
 20
-883.9091586794432
 30
0.0
 10
1294.030567417337
 20
-875.6330939981326
 30
0.0
 10
1296.051188108435
 20
-874.3802512538562
 30
0.0
  0
LINE
  5
107
330
1F
100
AcDbEntity
  8
0
  6
Continuous
 62
     7
370
    25
100
AcDbLine
 10
897.6805381871
 20
-507.002039076
 30
0.0
 11
897.6805381871
 21
-501.5992842385
 31
0.0
  0
LINE
  5
108
330
1F
100
AcDbEntity
  8
0
  6
Continuous
 62
     7
370
    25
100
AcDbLine
 10
883.6805381871
 20
-501.5992842385
 30
0.0
 11
883.6805381871
 21
-506.2987196559
 31
0.0
  0
LINE
  5
109
330
1F
100
AcDbEntity
  8
0
  6
Continuous
 62
     7
370
    25
100
AcDbLine
 10
848.183063504
 20
-477.5506428708
 30
0.0
 11
848.183063504
 21
-473.0250003247
 31
0.0
  0
LINE
  5
10A
330
1F
100
AcDbEntity
  8
0
  6
Continuous
 62
     7
370
    25
100
AcDbLine
 10
834.183063504
 20
-473.0250003247
 30
0.0
 11
834.183063504
 21
-478.6009544976
 31
0.0
  0
LINE
  5
10B
330
1F
100
AcDbEntity
  8
0
  6
Continuous
 62
     7
370
    25
100
AcDbLine
 10
1156.4816201014
 20
-357.7728097122
 30
0.0
 11
1156.4816201014
 21
-352.196599775
 31
0.0
  0
LINE
  5
10C
330
1F
100
AcDbEntity
  8
0
  6
Continuous
 62
     7
370
    25
100
AcDbLine
 10
1142.4816201014
 20
-352.196599775
 30
0.0
 11
1142.4816201014
 21
-356.7229779501
 31
0.0
  0
LINE
  5
10D
330
1F
100
AcDbEntity
  8
0
  6
Continuous
 62
     7
370
    25
100
AcDbLine
 10
1106.9841454183
 20
-328.320970926
 30
0.0
 11
1106.9841454183
 21
-323.6223158612
 31
0.0
  0
LINE
  5
10E
330
1F
100
AcDbEntity
  8
0
  6
Continuous
 62
     7
370
    25
100
AcDbLine
 10
1092.9841454183
 20
-323.6223158612
 30
0.0
 11
1092.9841454183
 21
-329.0250581238
 31
0.0
  0
LWPOLYLINE
  5
10F
330
1F
100
AcDbEntity
  8
0
  6
Continuous
 62
     7
370
    25
100
AcDbPolyline
 90
      191
 70
   128
 43
0.0
 10
630.818796101
 20
-626.7569548958
 10
630.9427031451
 20
-618.1757571783
 10
631.3142887869
 20
-609.7470029025
 10
631.9331467028
 20
-601.4799087874
 10
632.798600181
 20
-593.3835147791
 10
633.9097028606
 20
-585.4666741656
 10
635.2652397673
 20
-577.7380438959
 10
636.8637286413
 20
-570.2060751136
 10
638.7034215584
 20
-562.8790039161
 10
640.7823068417
 20
-555.7648423482
 10
643.0981112603
 20
-548.871369641
 10
645.6483025164
 20
-542.2061237058
 10
648.4300920131
 20
-535.7763928911
 10
651.4404379044
 20
-529.5892080132
 10
654.6760484214
 20
-523.6513346679
 10
658.1333854715
 20
-517.9692658326
 10
661.8086685073
 20
-512.549214766
 10
665.6978786608
 20
-507.3971082145
 10
669.7967631378
 20
-502.5185799309
 10
674.1008398683
 20
-497.9189645142
 10
678.6054024075
 20
-493.6032915765
 10
683.3055250826
 20
-489.5762802426
 10
688.1960683784
 20
-485.8423339904
 10
693.2716845575
 20
-482.4055358353
 10
698.5268235081
 20
-479.2696438655
 10
703.9557388131
 20
-476.438087133
 10
709.5524940332
 20
-473.9139619034
 10
715.3109691988
 20
-471.7000282707
 10
721.2248675018
 20
-469.7987071386
 10
727.2877221812
 20
-468.2120775741
 10
733.4929035945
 20
-466.9418745331
 10
739.8336264668
 20
-465.9894869642
 10
746.3029573109
 20
-465.355956289
 10
752.8938220085
 20
-465.0419752642
 10
759.5990135456
 20
-465.0478872233
 10
766.411199894
 20
-465.3736857017
 10
773.3229320277
 20
-466.0190144436
 10
780.3266520692
 20
-466.9831677914
 10
787.4147015534
 20
-468.2650914577
 10
794.5793298023
 20
-469.8633836776
 10
801.8127024002
 20
-471.7762967422
 10
809.1069097601
 20
-474.001738909
 10
816.4539757736
 20
-476.5372766898
 10
823.8458665318
 20
-479.3801375113
 10
831.2744991107
 20
-482.5272127467
 10
838.7317504095
 20
-485.9750611156
 10
846.2094660336
 20
-489.7199124465
 10
853.6994692106
 20
-493.7576717993
 10
861.1935697321
 20
-498.0839239434
 10
868.6835729091
 20
-502.6939381858
 10
876.1612885331
 20
-507.5826735434
 10
883.618539832
 20
-512.744784256
 10
891.0471724108
 20
-518.1746256313
 10
898.439063169
 20
-523.8662602175
 10
905.7861291825
 20
-529.8134642956
 10
913.0803365425
 20
-536.0097346854
 10
920.3137091403
 20
-542.4482958561
 10
927.4783373892
 20
-549.1221073357
 10
934.5663868735
 20
-556.0238714093
 10
941.570106915
 20
-563.1460410992
 10
948.4818390487
 20
-570.4808284173
 10
955.294025397
 20
-578.0202128816
 10
961.9992169342
 20
-585.7559502856
 10
968.5900816317
 20
-593.6795817143
 10
975.0594124758
 20
-601.7824427928
 10
981.4001353482
 20
-610.0556731617
 10
987.6053167615
 20
-618.4902261649
 10
993.6681714409
 20
-627.0768787427
 10
999.5820697438
 20
-635.8062415164
 10
1005.3405449094
 20
-644.668769056
 10
1010.9373001295
 20
-653.6547703178
 10
1016.3662154345
 20
-662.7544192414
 10
1021.6213543852
 20
-671.9577654942
 10
1026.6969705643
 20
-681.2547453522
 10
1031.58751386
 20
-690.6351927045
 10
1036.2876365351
 20
-700.0888501696
 10
1040.7921990744
 20
-709.6053803119
 10
1045.0962758049
 20
-719.1743769453
 10
1049.1951602819
 20
-728.7853765126
 10
1053.0843704354
 20
-738.4278695267
 10
1056.7596534712
 20
-748.0913120633
 10
1060.2169905212
 20
-757.7651372897
 10
1063.4526010382
 20
-767.4387670201
 10
1066.4629469296
 20
-777.1016232825
 10
1069.2447364263
 20
-786.7431398852
 10
1071.7949276823
 20
-796.3527739716
 10
1074.110732101
 20
-805.9200175478
 10
1076.1896173842
 20
-815.4344089734
 10
1078.0293103014
 20
-824.8855444011
 10
1079.6277991754
 20
-834.2630891531
 10
1080.983336082
 20
-843.5567890218
 10
1082.0944387617
 20
-852.7564814829
 10
1082.9598922398
 20
-861.8521068078
 10
1083.5787501558
 20
-870.8337190637
 10
1083.9503357975
 20
-879.6914969895
 10
1084.0742428416
 20
-888.415754735
 10
1083.9503357975
 20
-896.9969524526
 10
1083.5787501558
 20
-905.4257067284
 10
1082.9598922398
 20
-913.6928008435
 10
1082.0944387617
 20
-921.7891948518
 10
1080.983336082
 20
-929.7060354653
 10
1079.6277991754
 20
-937.434665735
 10
1078.0293103014
 20
-944.9666345173
 10
1076.1896173842
 20
-952.2937057147
 10
1074.110732101
 20
-959.4078672827
 10
1071.7949276823
 20
-966.3013399899
 10
1069.2447364263
 20
-972.9665859251
 10
1066.4629469296
 20
-979.3963167398
 10
1063.4526010382
 20
-985.5835016177
 10
1060.2169905212
 20
-991.5213749629
 10
1056.7596534712
 20
-997.2034437983
 10
1053.0843704354
 20
-1002.6234948649
 10
1049.1951602819
 20
-1007.7756014164
 10
1045.0962758049
 20
-1012.6541297
 10
1040.7921990744
 20
-1017.2537451167
 10
1036.2876365351
 20
-1021.5694180544
 10
1031.58751386
 20
-1025.5964293883
 10
1026.6969705643
 20
-1029.3303756405
 10
1021.6213543852
 20
-1032.7671737956
 10
1016.3662154345
 20
-1035.9030657653
 10
1010.9373001295
 20
-1038.7346224978
 10
1005.3405449094
 20
-1041.2587477274
 10
999.5820697438
 20
-1043.4726813602
 10
993.6681714409
 20
-1045.3740024922
 10
987.6053167615
 20
-1046.9606320568
 10
981.4001353482
 20
-1048.2308350977
 10
975.0594124758
 20
-1049.1832226667
 10
968.5900816317
 20
-1049.8167533418
 10
961.9992169342
 20
-1050.1307343667
 10
955.294025397
 20
-1050.1248224075
 10
948.4818390487
 20
-1049.7990239291
 10
941.570106915
 20
-1049.1536951873
 10
934.5663868735
 20
-1048.1895418394
 10
927.4783373892
 20
-1046.9076181732
 10
920.3137091403
 20
-1045.3093259533
 10
913.0803365425
 20
-1043.3964128887
 10
905.7861291825
 20
-1041.1709707218
 10
898.439063169
 20
-1038.635432941
 10
891.0471724108
 20
-1035.7925721196
 10
883.618539832
 20
-1032.6454968841
 10
876.1612885331
 20
-1029.1976485152
 10
868.6835729091
 20
-1025.4527971844
 10
861.193569732
 20
-1021.4150378316
 10
853.6994692106
 20
-1017.0887856874
 10
846.2094660336
 20
-1012.4787714451
 10
838.7317504095
 20
-1007.5900360874
 10
831.2744991107
 20
-1002.4279253748
 10
823.8458665318
 20
-996.9980839995
 10
816.4539757736
 20
-991.3064494134
 10
809.1069097601
 20
-985.3592453353
 10
801.8127024002
 20
-979.1629749455
 10
794.5793298023
 20
-972.7244137747
 10
787.4147015534
 20
-966.0506022951
 10
780.3266520692
 20
-959.1488382216
 10
773.3229320277
 20
-952.0266685317
 10
766.411199894
 20
-944.6918812135
 10
759.5990135456
 20
-937.1524967493
 10
752.8938220085
 20
-929.4167593452
 10
746.3029573109
 20
-921.4931279166
 10
739.8336264668
 20
-913.390266838
 10
733.4929035945
 20
-905.1170364692
 10
727.2877221812
 20
-896.6824834659
 10
721.2248675018
 20
-888.0958308882
 10
715.3109691988
 20
-879.3664681145
 10
709.5524940332
 20
-870.5039405749
 10
703.9557388131
 20
-861.517939313
 10
698.5268235081
 20
-852.4182903895
 10
693.2716845575
 20
-843.2149441367
 10
688.1960683784
 20
-833.9179642787
 10
683.3055250826
 20
-824.5375169264
 10
678.6054024075
 20
-815.0838594613
 10
674.1008398683
 20
-805.567329319
 10
669.7967631377
 20
-795.9983326856
 10
665.6978786608
 20
-786.3873331183
 10
661.8086685073
 20
-776.7448401041
 10
658.1333854715
 20
-767.0813975675
 10
654.6760484214
 20
-757.4075723411
 10
651.4404379044
 20
-747.7339426107
 10
648.4300920131
 20
-738.0710863484
 10
645.6483025164
 20
-728.4295697456
 10
643.0981112603
 20
-718.8199356593
 10
640.7823068417
 20
-709.2526920831
 10
638.7034215584
 20
-699.7383006575
 10
636.8637286413
 20
-690.2871652298
 10
635.2652397673
 20
-680.9096204778
 10
633.9097028606
 20
-671.6159206091
 10
632.798600181
 20
-662.416228148
 10
631.9331467028
 20
-653.3206028231
 10
631.3142887869
 20
-644.3389905672
 10
630.9427031451
 20
-635.4812126414
 10
630.818796101
 20
-626.7569548958
  0
SPLINE
  5
110
330
1F
100
AcDbEntity
  8
0
  6
Continuous
 62
     7
370
    25
100
AcDbSpline
210
0.0
220
0.0
230
1.0
 70
     8
 71
     3
 72
    11
 73
     7
 74
     0
 42
0.00000001
 43
0.00000001
 40
0.0
 40
0.0
 40
0.0
 40
0.0
 40
0.2881092907326636
 40
0.5762092457723882
 40
0.8643950614846417
 40
1.0
 40
1.0
 40
1.0
 40
1.0
 10
838.506846968148
 20
-481.6637513069675
 30
0.0
 10
837.8029526149279
 20
-481.5159067334633
 30
0.0
 10
836.3951867169901
 20
-481.2202223771077
 30
0.0
 10
834.9523420746499
 20
-480.3187776417588
 30
0.0
 10
834.1961626576691
 20
-479.4067079151232
 30
0.0
 10
834.2621035054405
 20
-478.7966902101209
 30
0.0
 10
834.2832033159449
 20
-478.6014962079985
 30
0.0
  0
SPLINE
  5
111
330
1F
100
AcDbEntity
  8
0
  6
Continuous
 62
     7
370
    25
100
AcDbSpline
210
0.0
220
0.0
230
1.0
 70
     8
 71
     3
 72
    14
 73
    10
 74
     0
 42
0.00000001
 43
0.00000001
 40
0.0
 40
0.0
 40
0.0
 40
0.0
 40
0.0366533643060596
 40
0.20816313950317
 40
0.3791012998777901
 40
0.5499254149238715
 40
0.7210228881498707
 40
0.8926781032682298
 40
1.0
 40
1.0
 40
1.0
 40
1.0
 10
848.1162374944945
 20
-477.5543971848359
 30
0.0
 10
848.1368556826147
 20
-477.6417781992752
 30
0.0
 10
848.253951257639
 20
-478.1380356818568
 30
0.0
 10
847.6859801337168
 20
-479.1024959278735
 30
0.0
 10
846.435242217119
 20
-480.2576274863725
 30
0.0
 10
844.5309150709385
 20
-481.1655009101069
 30
0.0
 10
842.2751194976279
 20
-481.7116704914542
 30
0.0
 10
840.1729065678347
 20
-481.8498534690366
 30
0.0
 10
838.9697129665956
 20
-481.7154543571317
 30
0.0
 10
838.506846968148
 20
-481.6637513069674
 30
0.0
  0
SPLINE
  5
112
330
1F
100
AcDbEntity
  8
0
  6
Continuous
 62
     7
370
    25
100
AcDbSpline
210
0.0
220
0.0
230
1.0
 70
     8
 71
     3
 72
    12
 73
     8
 74
     0
 42
0.00000001
 43
0.00000001
 40
0.0
 40
0.0
 40
0.0
 40
0.0
 40
0.238195567007488
 40
0.4763587596719625
 40
0.7151865660389939
 40
0.9539620556108127
 40
1.0
 40
1.0
 40
1.0
 40
1.0
 10
889.6428335532609
 20
-511.111706541174
 30
0.0
 10
888.8734557021043
 20
-510.939376012438
 30
0.0
 10
887.3348045697578
 20
-510.5947383772644
 30
0.0
 10
885.4234125664013
 20
-509.5030077521461
 30
0.0
 10
884.1678042500184
 20
-508.1390277135553
 30
0.0
 10
883.6029795931369
 20
-506.9973718671203
 30
0.0
 10
883.7235341122403
 20
-506.3991671407401
 30
0.0
 10
883.7430208413917
 20
-506.3024718565905
 30
0.0
  0
SPLINE
  5
113
330
1F
100
AcDbEntity
  8
0
  6
Continuous
 62
     7
370
    25
100
AcDbSpline
210
0.0
220
0.0
230
1.0
 70
     8
 71
     3
 72
    13
 73
     9
 74
     0
 42
0.00000001
 43
0.00000001
 40
0.0
 40
0.0
 40
0.0
 40
0.0
 40
0.0976710844262272
 40
0.2951892313582841
 40
0.4911019781977526
 40
0.685612440149729
 40
0.8797637857037554
 40
1.0
 40
1.0
 40
1.0
 40
1.0
 10
897.5796030523596
 20
-507.0021904150908
 30
0.0
 10
897.59957760365
 20
-507.261676801552
 30
0.0
 10
897.6599462631849
 20
-508.0459169624695
 30
0.0
 10
896.8957946345907
 20
-509.2532840201046
 30
0.0
 10
895.429851834799
 20
-510.4071729693837
 30
0.0
 10
893.4014819390068
 20
-511.1147204889611
 30
0.0
 10
891.3755769258946
 20
-511.3141459725171
 30
0.0
 10
890.1221872284746
 20
-511.1677102673779
 30
0.0
 10
889.6428335532609
 20
-511.111706541174
 30
0.0
  0
LWPOLYLINE
  5
114
330
1F
100
AcDbEntity
  8
0
  6
Continuous
 62
     7
370
    25
100
AcDbPolyline
 90
      178
 70
   128
 43
0.0
 10
659.4566207391
 20
-643.2892191603
 10
659.5813535289
 20
-635.2469211086
 10
659.955394736
 20
-627.3587696973
 10
660.5782730718
 20
-619.6347039299
 10
661.4492037148
 20
-612.0844560631
 10
662.5670892999
 20
-604.7175393447
 10
663.9305213007
 20
-597.5432360268
 10
665.5377818048
 20
-590.5705856702
 10
667.3868456774
 20
-583.8083737547
 10
669.475383114
 20
-577.2651206096
 10
671.8007625753
 20
-570.9490706778
 10
674.360054103
 20
-564.8681821282
 10
677.1500330117
 20
-559.0301168286
 10
680.1671839518
 20
-553.4422306911
 10
683.4077053389
 20
-548.1115644046
 10
686.8675141438
 20
-543.044834563
 10
690.542251037
 20
-538.2484252026
 10
694.4272858813
 20
-533.7283797582
 10
698.5177235662
 20
-529.4903934484
 10
702.808410175
 20
-525.5398060996
 10
707.2939394795
 20
-521.8815954183
 10
711.9686597509
 20
-518.5203707185
 10
716.8266808817
 20
-515.4603671147
 10
721.8618818069
 20
-512.7054401852
 10
727.0679182162
 20
-510.2590611144
 10
732.4382305484
 20
-508.124312319
 10
737.9660522558
 20
-506.3038835643
 10
743.6444183304
 20
-504.8000685749
 10
749.4661740794
 20
-503.6147621448
 10
755.4239841404
 20
-502.7494577501
 10
761.5103417235
 20
-502.2052456668
 10
767.7175780704
 20
-501.9828115975
 10
774.0378721163
 20
-502.0824358073
 10
780.4632603447
 20
-502.5039927704
 10
786.9856468214
 20
-503.2469513288
 10
793.5968133952
 20
-504.310375361
 10
800.2884300527
 20
-505.6929249618
 10
807.0520654142
 20
-507.3928581305
 10
813.879197357
 20
-509.4080329659
 10
820.7612237531
 20
-511.7359103649
 10
827.6894733081
 20
-514.3735572219
 10
834.6552164869
 20
-517.3176501244
 10
841.6496765126
 20
-520.5644795405
 10
848.6640404254
 20
-524.1099544929
 10
855.6894701866
 20
-527.9496077135
 10
862.717113815
 20
-532.0786012721
 10
869.7381165395
 20
-536.491732672
 10
876.7436319568
 20
-541.1834414055
 10
883.7248331774
 20
-546.1478159596
 10
890.6729239474
 20
-551.3786012649
 10
897.5791497318
 20
-556.8692065766
 10
904.4348087453
 20
-562.612713779
 10
911.231262916
 20
-568.601886102
 10
917.9599487698
 20
-574.8291772398
 10
924.6123882201
 20
-581.2867408588
 10
931.18019925
 20
-587.966440484
 10
937.6551064738
 20
-594.859859751
 10
944.0289515638
 20
-601.9583130105
 10
950.2937035297
 20
-609.252856272
 10
956.4414688374
 20
-616.7342984735
 10
962.4645013554
 20
-624.3932130616
 10
968.3552121141
 20
-632.2199498696
 10
974.1061788683
 20
-640.2046472759
 10
979.7101554492
 20
-648.3372446301
 10
985.160080894
 20
-656.6074949291
 10
990.4490883434
 20
-665.0049777281
 10
995.5705136933
 20
-673.5191122708
 10
1000.5179039913
 20
-682.1391708202
 10
1005.2850255681
 20
-690.8542921764
 10
1009.8658718912
 20
-699.653495361
 10
1014.2546711335
 20
-708.5256934531
 10
1018.4458934454
 20
-717.4597075591
 10
1022.4342579226
 20
-726.4442808976
 10
1026.21473926
 20
-735.468092983
 10
1029.7825740835
 20
-744.5197738891
 10
1033.1332669516
 20
-753.5879185755
 10
1036.26259602
 20
-762.6611012573
 10
1039.1666183608
 20
-771.7278898021
 10
1041.8416749308
 20
-780.7768601336
 10
1044.2843951814
 20
-789.7966106268
 10
1046.4917013061
 20
-798.775776473
 10
1048.460812118
 20
-807.7030440001
 10
1050.1892465544
 20
-816.5671649273
 10
1051.6748268025
 20
-825.3569705381
 10
1052.9156810441
 20
-834.0613857525
 10
1053.9102458134
 20
-842.6694430817
 10
1054.6572679672
 20
-851.1702964472
 10
1055.1558062641
 20
-859.5532348464
 10
1055.4052325501
 20
-867.8076958486
 10
1055.4052325501
 20
-875.9232789035
 10
1055.1558062641
 20
-883.8897584458
 10
1054.6572679672
 20
-891.6970967794
 10
1053.9102458134
 20
-899.3354567248
 10
1052.9156810441
 20
-906.7952140137
 10
1051.6748268025
 20
-914.0669694158
 10
1050.1892465544
 20
-921.1415605814
 10
1048.460812118
 20
-928.0100735861
 10
1046.4917013061
 20
-934.6638541623
 10
1044.2843951814
 20
-941.0945186033
 10
1041.8416749308
 20
-947.2939643269
 10
1039.1666183608
 20
-953.2543800846
 10
1036.26259602
 20
-958.9682558033
 10
1033.1332669516
 20
-964.4283920487
 10
1029.7825740835
 20
-969.6279090956
 10
1026.21473926
 20
-974.5602555971
 10
1022.4342579226
 20
-979.2192168387
 10
1018.4458934454
 20
-983.5989225691
 10
1014.2546711335
 20
-987.6938543966
 10
1009.8658718912
 20
-991.498852742
 10
1005.2850255681
 20
-995.00912334
 10
1000.5179039913
 20
-998.2202432796
 10
995.5705136932
 20
-1001.1281665771
 10
990.4490883434
 20
-1003.7292292741
 10
985.160080894
 20
-1006.0201540538
 10
979.7101554492
 20
-1007.9980543706
 10
974.1061788683
 20
-1009.6604380869
 10
968.3552121141
 20
-1011.0052106136
 10
962.4645013554
 20
-1012.0306775486
 10
956.4414688374
 20
-1012.7355468126
 10
950.2937035297
 20
-1013.1189302761
 10
944.0289515638
 20
-1013.1803448794
 10
937.6551064738
 20
-1012.9197132405
 10
931.18019925
 20
-1012.337363753
 10
924.6123882201
 20
-1011.4340301725
 10
917.9599487698
 20
-1010.2108506913
 10
911.231262916
 20
-1008.6693665054
 10
904.4348087453
 20
-1006.8115198714
 10
897.5791497318
 20
-1004.6396516603
 10
890.6729239474
 20
-1002.1564984076
 10
883.7248331774
 20
-999.3651888649
 10
876.7436319568
 20
-996.2692400586
 10
869.7381165395
 20
-992.8725528576
 10
862.717113815
 20
-989.1794070588
 10
855.6894701866
 20
-985.1944559942
 10
848.6640404254
 20
-980.9227206682
 10
841.6496765126
 20
-976.3695834308
 10
834.6552164869
 20
-971.5407811959
 10
827.6894733081
 20
-966.442398213
 10
820.7612237531
 20
-961.0808584012
 10
813.879197357
 20
-955.4629172548
 10
807.0520654142
 20
-949.5956533315
 10
800.2884300527
 20
-943.4864593338
 10
793.5968133952
 20
-937.1430327938
 10
786.9856468214
 20
-930.5733663748
 10
780.4632603447
 20
-923.7857378002
 10
774.0378721163
 20
-916.7886994241
 10
767.7175780704
 20
-909.591067455
 10
761.5103417235
 20
-902.2019108476
 10
755.4239841404
 20
-894.630539876
 10
749.4661740794
 20
-886.886494403
 10
743.6444183304
 20
-878.9795318596
 10
737.9660522558
 20
-870.9196149511
 10
732.4382305484
 20
-862.7168991038
 10
727.0679182162
 20
-854.3817196695
 10
721.8618818069
 20
-845.9245789031
 10
716.8266808817
 20
-837.3561327297
 10
711.9686597509
 20
-828.6871773181
 10
707.2939394795
 20
-819.9286354781
 10
702.808410175
 20
-811.0915428975
 10
698.5177235662
 20
-802.1870342373
 10
694.4272858813
 20
-793.2263291025
 10
690.542251037
 20
-784.2207179047
 10
686.8675141438
 20
-775.1815476372
 10
683.4077053389
 20
-766.1202075771
 10
680.1671839518
 20
-757.0481149356
 10
677.1500330117
 20
-747.9767004717
 10
674.360054103
 20
-738.9173940901
 10
671.8007625753
 20
-729.8816104394
 10
669.475383114
 20
-720.8807345297
 10
667.3868456774
 20
-711.9261073877
 10
665.5377818048
 20
-703.0290117672
 10
663.9305213007
 20
-694.2006579324
 10
662.5670892999
 20
-685.4521695337
 10
661.4492037148
 20
-676.7945695917
 10
660.5782730718
 20
-668.2387666084
 10
659.955394736
 20
-659.7955408222
 10
659.5813535289
 20
-651.4755306256
 10
659.4566207391
 20
-643.2892191603
  0
ARC
  5
115
330
1F
100
AcDbEntity
  8
0
  6
Continuous
 62
     7
370
    25
100
AcDbCircle
 10
1410.5401720706
 20
-438.2921855374
 30
0.0
 40
481.8851477227395
100
AcDbArc
 50
204.2084777315
 51
215.7861457358
  0
LWPOLYLINE
  5
116
330
1F
100
AcDbEntity
  8
0
  6
Continuous
 62
     7
370
    25
100
AcDbPolyline
 90
       20
 70
   128
 43
0.0
 10
975.6307748818
 20
-319.3382984996
 10
979.7273834759
 20
-317.2385053276
 10
985.324138696
 20
-314.714380098
 10
991.0826138615
 20
-312.5004464652
 10
996.9965121645
 20
-310.5991253332
 10
1003.0593668439
 20
-309.0124957687
 10
1009.2645482572
 20
-307.7422927277
 10
1015.6052711296
 20
-306.7899051588
 10
1022.0746019737
 20
-306.1563744836
 10
1028.6654666712
 20
-305.8423934588
 10
1035.3706582084
 20
-305.8483054179
 10
1042.1828445567
 20
-306.1741038963
 10
1049.0945766904
 20
-306.8194326382
 10
1056.0982967319
 20
-307.783585986
 10
1063.1863462162
 20
-309.0655096522
 10
1070.3509744651
 20
-310.6638018722
 10
1077.5843470629
 20
-312.5767149368
 10
1084.8785544229
 20
-314.8021571036
 10
1092.2256204364
 20
-317.3376948844
 10
1098.3882658184
 20
-319.6877213351
  0
ARC
  5
117
330
1F
100
AcDbEntity
  8
0
  6
Continuous
 62
     7
370
    25
100
AcDbCircle
 10
986.5948563582
 20
-591.8596158224
 30
0.0
 40
294.3088237122279
100
AcDbArc
 50
55.8060134239
 51
65.8594142939
  0
LWPOLYLINE
  5
118
330
1F
100
AcDbEntity
  8
0
  6
Continuous
 62
     7
370
    25
100
AcDbPolyline
 90
       70
 70
   128
 43
0.0
 10
1156.3451708672
 20
-351.4026096461
 10
1159.3901844947
 20
-353.5452024506
 10
1166.8188170736
 20
-358.9750438259
 10
1174.2107078318
 20
-364.666678412
 10
1181.5577738453
 20
-370.6138824902
 10
1188.8519812052
 20
-376.81015288
 10
1196.0853538031
 20
-383.2487140507
 10
1203.249982052
 20
-389.9225255303
 10
1210.3380315362
 20
-396.8242896039
 10
1217.3417515777
 20
-403.9464592937
 10
1224.2534837114
 20
-411.2812466119
 10
1231.0656700598
 20
-418.8206310761
 10
1237.7708615969
 20
-426.5563684802
 10
1244.3617262945
 20
-434.4799999088
 10
1250.8310571386
 20
-442.5828609874
 10
1257.1717800109
 20
-450.8560913563
 10
1263.3769614242
 20
-459.2906443595
 10
1269.4398161036
 20
-467.8772969372
 10
1275.3537144066
 20
-476.6066597109
 10
1281.1121895722
 20
-485.4691872506
 10
1286.7089447923
 20
-494.4551885124
 10
1292.1378600973
 20
-503.5548374359
 10
1297.3929990479
 20
-512.7581836887
 10
1302.468615227
 20
-522.0551635468
 10
1307.3591585228
 20
-531.4356108991
 10
1312.0592811979
 20
-540.8892683642
 10
1316.5638437371
 20
-550.4057985064
 10
1320.8679204676
 20
-559.9747951399
 10
1324.9668049446
 20
-569.5857947071
 10
1328.8560150981
 20
-579.2282877213
 10
1332.5312981339
 20
-588.8917302579
 10
1335.988635184
 20
-598.5655554843
 10
1339.224245701
 20
-608.2391852147
 10
1342.2345915923
 20
-617.902041477
 10
1345.016381089
 20
-627.5435580798
 10
1347.5665723451
 20
-637.1531921662
 10
1349.8823767637
 20
-646.7204357423
 10
1351.9612620469
 20
-656.2348271679
 10
1353.8009549641
 20
-665.6859625957
 10
1355.3994438381
 20
-675.0635073476
 10
1356.7549807448
 20
-684.3572072164
 10
1357.8660834244
 20
-693.5568996775
 10
1358.7315369026
 20
-702.6525250024
 10
1359.3503948185
 20
-711.6341372583
 10
1359.7219804603
 20
-720.4919151841
 10
1359.8458875044
 20
-729.2161729296
 10
1359.7219804603
 20
-737.7973706471
 10
1359.3503948185
 20
-746.226124923
 10
1358.7315369025
 20
-754.4932190381
 10
1357.8660834244
 20
-762.5896130463
 10
1356.7549807448
 20
-770.5064536598
 10
1355.3994438381
 20
-778.2350839296
 10
1353.8009549641
 20
-785.7670527118
 10
1351.9612620469
 20
-793.0941239093
 10
1349.8823767637
 20
-800.2082854773
 10
1347.5665723451
 20
-807.1017581844
 10
1345.016381089
 20
-813.7670041197
 10
1342.2345915923
 20
-820.1967349343
 10
1339.224245701
 20
-826.3839198122
 10
1335.988635184
 20
-832.3217931575
 10
1332.5312981339
 20
-838.0038619929
 10
1328.8560150981
 20
-843.4239130594
 10
1324.9668049446
 20
-848.576019611
 10
1320.8679204676
 20
-853.4545478946
 10
1316.5638437371
 20
-858.0541633112
 10
1312.0592811978
 20
-862.369836249
 10
1307.3591585228
 20
-866.3968475828
 10
1302.468615227
 20
-870.130793835
 10
1297.3929990479
 20
-873.5675919902
 10
1296.0616993502
 20
-874.4009366559
  0
SPLINE
  5
119
330
1F
100
AcDbEntity
  8
0
  6
Continuous
 62
     7
370
    25
100
AcDbSpline
210
0.0
220
0.0
230
1.0
 70
     8
 71
     3
 72
    12
 73
     8
 74
     0
 42
0.00000001
 43
0.00000001
 40
0.0
 40
0.0
 40
0.0
 40
0.0
 40
0.2363673755541755
 40
0.4727310195262233
 40
0.7090094243821718
 40
0.9441959936907884
 40
0.9999999999999999
 40
0.9999999999999999
 40
0.9999999999999999
 40
0.9999999999999999
 10
1148.56361823932
 20
-361.5298844283433
 30
0.0
 10
1147.789408053665
 20
-361.3507667861965
 30
0.0
 10
1146.240999904976
 20
-360.9925343296707
 30
0.0
 10
1144.300995488389
 20
-359.9050927188631
 30
0.0
 10
1143.008751866661
 20
-358.5665280682463
 30
0.0
 10
1142.418154898499
 20
-357.4348153170671
 30
0.0
 10
1142.532030901459
 20
-356.8406086173382
 30
0.0
 10
1142.553869193556
 20
-356.726656080043
 30
0.0
  0
SPLINE
  5
11A
330
1F
100
AcDbEntity
  8
0
  6
Continuous
 62
     7
370
    25
100
AcDbSpline
210
0.0
220
0.0
230
1.0
 70
     8
 71
     3
 72
    13
 73
     9
 74
     0
 42
0.00000001
 43
0.00000001
 40
0.0
 40
0.0
 40
0.0
 40
0.0
 40
0.0895340654205062
 40
0.2875740511781645
 40
0.4842140626505699
 40
0.6802687178032222
 40
0.8769747962289154
 40
1.0
 40
1.0
 40
1.0
 40
1.0
 10
1156.382169153803
 20
-357.7737982025271
 30
0.0
 10
1156.404512877265
 20
-358.0015519383071
 30
0.0
 10
1156.476278579452
 20
-358.733073110295
 30
0.0
 10
1155.750154477916
 20
-359.8579030465188
 30
0.0
 10
1154.326305720233
 20
-360.9421939741553
 30
0.0
 10
1152.327423936538
 20
-361.5916443231237
 30
0.0
 10
1150.309533085408
 20
-361.7540811191142
 30
0.0
 10
1149.048741634491
 20
-361.5921801697746
 30
0.0
 10
1148.56361823932
 20
-361.5298844283433
 30
0.0
  0
SPLINE
  5
11B
330
1F
100
AcDbEntity
  8
0
  6
Continuous
 62
     7
370
    25
100
AcDbSpline
210
0.0
220
0.0
230
1.0
 70
     8
 71
     3
 72
    11
 73
     7
 74
     0
 42
0.00000001
 43
0.00000001
 40
0.0
 40
0.0
 40
0.0
 40
0.0
 40
0.2849022162788695
 40
0.5697587827750222
 40
0.8556550475453452
 40
1.0
 40
1.0
 40
1.0
 40
1.0
 10
1097.366331399176
 20
-332.041435018232
 30
0.0
 10
1096.660185134545
 20
-331.8887663240789
 30
0.0
 10
1095.248005750852
 20
-331.5834533978246
 30
0.0
 10
1093.787835352911
 20
-330.7040102771856
 30
0.0
 10
1093.008888115066
 20
-329.8144523894977
 30
0.0
 10
1093.065952419307
 20
-329.2233026616257
 30
0.0
 10
1093.085097363939
 20
-329.0249732688408
 30
0.0
  0
SPLINE
  5
11C
330
1F
100
AcDbEntity
  8
0
  6
Continuous
 62
     7
370
    25
100
AcDbSpline
210
0.0
220
0.0
230
1.0
 70
     8
 71
     3
 72
    14
 73
    10
 74
     0
 42
0.00000001
 43
0.00000001
 40
0.0
 40
0.0
 40
0.0
 40
0.0
 40
0.0318375879935746
 40
0.2053461848357384
 40
0.3780915892794847
 40
0.5502024044996491
 40
0.7219348911846643
 40
0.893648522309259
 40
0.9999999999999999
 40
0.9999999999999999
 40
0.9999999999999999
 40
0.9999999999999999
 10
1106.924191670051
 20
-328.3247023811981
 30
0.0
 10
1106.943028252009
 20
-328.3967591277054
 30
0.0
 10
1107.064520503283
 20
-328.861510979823
 30
0.0
 10
1106.509481270782
 20
-329.7626373721934
 30
0.0
 10
1105.271870929847
 20
-330.8450786947421
 30
0.0
 10
1103.37075662783
 20
-331.6771099964567
 30
0.0
 10
1101.11823997034
 20
-332.154895420219
 30
0.0
 10
1099.023406139191
 20
-332.2463903807332
 30
0.0
 10
1097.824772458773
 20
-332.0981373209625
 30
0.0
 10
1097.366331399176
 20
-332.041435018232
 30
0.0
  0
LWPOLYLINE
  5
11D
330
1F
100
AcDbEntity
  8
0
  6
Continuous
 62
     7
370
    25
100
AcDbPolyline
 90
       29
 70
   128
 43
0.0
 10
895.6302856554
 20
-498.7418558471
 10
896.6076075817
 20
-499.4493351771
 10
897.2877214992
 20
-500.2646219303
 10
897.6365236563
 20
-501.1468342248
 10
897.6365236563
 20
-502.0517342522
 10
897.2877214992
 20
-502.9339465467
 10
896.6076075817
 20
-503.7492333
 10
895.6302856554
 20
-504.4567126299
 10
894.4047627227
 20
-505.0209085687
 10
892.9924916208
 20
-505.4135299761
 10
891.4642895198
 20
-505.6148891754
 10
889.8967868544
 20
-505.6148891754
 10
888.3685847534
 20
-505.4135299761
 10
886.9563136515
 20
-505.0209085687
 10
885.7307907188
 20
-504.4567126299
 10
884.7534687925
 20
-503.7492333
 10
884.0733548749
 20
-502.9339465467
 10
883.7245527178
 20
-502.0517342522
 10
883.7245527178
 20
-501.1468342248
 10
884.0733548749
 20
-500.2646219303
 10
884.7534687925
 20
-499.4493351771
 10
885.7307907188
 20
-498.7418558471
 10
886.9563136515
 20
-498.1776599083
 10
888.3685847534
 20
-497.7850385009
 10
889.8967868544
 20
-497.5836793017
 10
891.4642895198
 20
-497.5836793017
 10
892.9924916208
 20
-497.7850385009
 10
894.4047627227
 20
-498.1776599083
 10
895.6302856554
 20
-498.7418558471
  0
LWPOLYLINE
  5
11E
330
1F
100
AcDbEntity
  8
0
  6
Continuous
 62
     7
370
    25
100
AcDbPolyline
 90
       24
 70
   128
 43
0.0
 10
894.216072093
 20
-499.558263959
 10
895.0388405373
 20
-500.1846112088
 10
895.5383736341
 20
-500.9158782856
 10
895.6776232989
 20
-501.6978304555
 10
895.4462620212
 20
-502.4724739033
 10
894.8614488084
 20
-503.1823568682
 10
893.9665565812
 20
-503.7748305783
 10
892.8279554022
 20
-504.2059539689
 10
891.5300901122
 20
-504.4437525902
 10
890.1692174424
 20
-504.4705900065
 10
888.846267093
 20
-504.2844758093
 10
887.6593562395
 20
-503.8992132373
 10
886.69651263
 20
-503.3433754529
 10
886.0291459704
 20
-502.6581864018
 10
885.7067517928
 20
-501.8944634214
 10
885.7532405985
 20
-501.1088483514
 10
886.1651645255
 20
-500.3596066675
 10
886.9119730605
 20
-499.7023061979
 10
887.9382788308
 20
-499.1856959115
 10
889.1679654327
 20
-498.8480904299
 10
890.5098326362
 20
-498.7145284072
 10
891.8643602894
 20
-498.7949155276
 10
893.131089273
 20
-499.0832898462
 10
894.216072093
 20
-499.558263959
  0
SPLINE
  5
11F
330
1F
100
AcDbEntity
  8
0
  6
Continuous
 62
     7
370
    25
100
AcDbSpline
210
0.0
220
0.0
230
1.0
 70
     8
 71
     3
 72
    12
 73
     8
 74
     0
 42
0.00000001
 43
0.00000001
 40
0.0
 40
0.0
 40
0.0
 40
0.0
 40
0.0083745639476973
 40
0.293057101229056
 40
0.5775009566140228
 40
0.8625133336025015
 40
1.0
 40
1.0
 40
1.0
 40
1.0
 10
887.7436532877449
 20
-503.8636662016272
 30
0.0
 10
887.7551725714128
 20
-503.8566270214149
 30
0.0
 10
888.1582750972333
 20
-503.6102999575891
 30
0.0
 10
889.2872311473816
 20
-503.394423175736
 30
0.0
 10
890.9305585183125
 20
-503.3282274374367
 30
0.0
 10
892.3510408772996
 20
-503.5570785776813
 30
0.0
 10
893.0322065969912
 20
-503.8961667520503
 30
0.0
 10
893.2538667534594
 20
-504.006510440252
 30
0.0
  0
LWPOLYLINE
  5
120
330
1F
100
AcDbEntity
  8
0
  6
Continuous
 62
     7
370
    25
100
AcDbPolyline
 90
       29
 70
   128
 43
0.0
 10
836.2333160357
 20
-475.8824287161
 10
835.2559941094
 20
-475.1749493862
 10
834.5758801919
 20
-474.3596626329
 10
834.2270780348
 20
-473.4774503384
 10
834.2270780348
 20
-472.572550311
 10
834.5758801919
 20
-471.6903380165
 10
835.2559941094
 20
-470.8750512633
 10
836.2333160357
 20
-470.1675719334
 10
837.4588389684
 20
-469.6033759945
 10
838.8711100703
 20
-469.2107545871
 10
840.3993121713
 20
-469.0093953879
 10
841.9668148368
 20
-469.0093953879
 10
843.4950169377
 20
-469.2107545871
 10
844.9072880396
 20
-469.6033759945
 10
846.1328109723
 20
-470.1675719334
 10
847.1101328986
 20
-470.8750512633
 10
847.7902468162
 20
-471.6903380165
 10
848.1390489733
 20
-472.572550311
 10
848.1390489733
 20
-473.4774503384
 10
847.7902468162
 20
-474.3596626329
 10
847.1101328986
 20
-475.1749493862
 10
846.1328109723
 20
-475.8824287161
 10
844.9072880396
 20
-476.4466246549
 10
843.4950169377
 20
-476.8392460623
 10
841.9668148368
 20
-477.0406052616
 10
840.3993121713
 20
-477.0406052616
 10
838.8711100703
 20
-476.8392460623
 10
837.4588389684
 20
-476.4466246549
 10
836.2333160357
 20
-475.8824287161
  0
LWPOLYLINE
  5
121
330
1F
100
AcDbEntity
  8
0
  6
Continuous
 62
     7
370
    25
100
AcDbPolyline
 90
       24
 70
   128
 43
0.0
 10
837.6475295981
 20
-475.0660206043
 10
836.8247611539
 20
-474.4396733545
 10
836.325228057
 20
-473.7084062777
 10
836.1859783922
 20
-472.9264541078
 10
836.41733967
 20
-472.15181066
 10
837.0021528828
 20
-471.441927695
 10
837.8970451099
 20
-470.8494539849
 10
839.0356462889
 20
-470.4183305944
 10
840.3335115789
 20
-470.1805319731
 10
841.6943842487
 20
-470.1536945568
 10
843.0173345981
 20
-470.3398087539
 10
844.2042454516
 20
-470.725071326
 10
845.1670890611
 20
-471.2809091104
 10
845.8344557207
 20
-471.9660981615
 10
846.1568498983
 20
-472.7298211419
 10
846.1103610926
 20
-473.5154362119
 10
845.6984371657
 20
-474.2646778958
 10
844.9516286307
 20
-474.9219783653
 10
843.9253228603
 20
-475.4385886517
 10
842.6956362584
 20
-475.7761941333
 10
841.353769055
 20
-475.909756156
 10
839.9992414017
 20
-475.8293690356
 10
838.7325124181
 20
-475.540994717
 10
837.6475295981
 20
-475.0660206043
  0
SPLINE
  5
122
330
1F
100
AcDbEntity
  8
0
  6
Continuous
 62
     7
370
    25
100
AcDbSpline
210
0.0
220
0.0
230
1.0
 70
     8
 71
     3
 72
    10
 73
     6
 74
     0
 42
0.00000001
 43
0.00000001
 40
0.0
 40
0.0
 40
0.0
 40
0.0
 40
0.3495441782223082
 40
0.7828507896113512
 40
1.0
 40
1.0
 40
1.0
 40
1.0
 10
839.632578427934
 20
-475.7085131929384
 30
0.0
 10
840.0686393624458
 20
-475.6095769555775
 30
0.0
 10
841.0452559624913
 20
-475.3879960614741
 30
0.0
 10
842.3893500697952
 20
-475.3498723658669
 30
0.0
 10
843.1238395828625
 20
-475.5057509279731
 30
0.0
 10
843.3690427349619
 20
-475.557789676101
 30
0.0
  0
LWPOLYLINE
  5
123
330
1F
100
AcDbEntity
  8
0
  6
Continuous
 62
     7
370
    25
100
AcDbPolyline
 90
       29
 70
   128
 43
0.0
 10
1144.5318726331
 20
-355.0540281663
 10
1143.5545507068
 20
-354.3465488364
 10
1142.8744367892
 20
-353.5312620832
 10
1142.5256346321
 20
-352.6490497887
 10
1142.5256346321
 20
-351.7441497613
 10
1142.8744367892
 20
-350.8619374668
 10
1143.5545507068
 20
-350.0466507135
 10
1144.5318726331
 20
-349.3391713836
 10
1145.7573955658
 20
-348.7749754448
 10
1147.1696666677
 20
-348.3823540374
 10
1148.6978687686
 20
-348.1809948381
 10
1150.2653714341
 20
-348.1809948381
 10
1151.7935735351
 20
-348.3823540374
 10
1153.205844637
 20
-348.7749754448
 10
1154.4313675697
 20
-349.3391713836
 10
1155.408689496
 20
-350.0466507135
 10
1156.0888034135
 20
-350.8619374668
 10
1156.4376055706
 20
-351.7441497613
 10
1156.4376055706
 20
-352.6490497887
 10
1156.0888034135
 20
-353.5312620832
 10
1155.408689496
 20
-354.3465488364
 10
1154.4313675697
 20
-355.0540281663
 10
1153.205844637
 20
-355.6182241051
 10
1151.7935735351
 20
-356.0108455126
 10
1150.2653714341
 20
-356.2122047118
 10
1148.6978687686
 20
-356.2122047118
 10
1147.1696666677
 20
-356.0108455126
 10
1145.7573955658
 20
-355.6182241051
 10
1144.5318726331
 20
-355.0540281663
  0
LWPOLYLINE
  5
124
330
1F
100
AcDbEntity
  8
0
  6
Continuous
 62
     7
370
    25
100
AcDbPolyline
 90
       24
 70
   128
 43
0.0
 10
1145.9460861954
 20
-354.2376200545
 10
1145.1233177512
 20
-353.6112728047
 10
1144.6237846544
 20
-352.8800057279
 10
1144.4845349895
 20
-352.098053558
 10
1144.7158962673
 20
-351.3234101102
 10
1145.3007094801
 20
-350.6135271453
 10
1146.1956017073
 20
-350.0210534352
 10
1147.3342028862
 20
-349.5899300446
 10
1148.6320681762
 20
-349.3521314233
 10
1149.9929408461
 20
-349.325294007
 10
1151.3158911954
 20
-349.5114082042
 10
1152.502802049
 20
-349.8966707762
 10
1153.4656456584
 20
-350.4525085606
 10
1154.1330123181
 20
-351.1376976117
 10
1154.4554064957
 20
-351.9014205921
 10
1154.40891769
 20
-352.6870356621
 10
1153.996993763
 20
-353.436277346
 10
1153.250185228
 20
-354.0935778156
 10
1152.2238794576
 20
-354.610188102
 10
1150.9941928558
 20
-354.9477935836
 10
1149.6523256523
 20
-355.0813556063
 10
1148.297797999
 20
-355.0009684858
 10
1147.0310690155
 20
-354.7125941673
 10
1145.9460861954
 20
-354.2376200545
  0
SPLINE
  5
125
330
1F
100
AcDbEntity
  8
0
  6
Continuous
 62
     7
370
    25
100
AcDbSpline
210
0.0
220
0.0
230
1.0
 70
     8
 71
     3
 72
    11
 73
     7
 74
     0
 42
0.00000001
 43
0.00000001
 40
0.0
 40
0.0
 40
0.0
 40
0.0
 40
0.2914702709348704
 40
0.5884184192357802
 40
0.8866860626085603
 40
1.0
 40
1.0
 40
1.0
 40
1.0
 10
1146.527656484046
 20
-354.4922258012829
 30
0.0
 10
1147.003184396407
 20
-354.3470629081377
 30
0.0
 10
1147.963177268396
 20
-354.0540089378571
 30
0.0
 10
1149.649454113744
 20
-354.0615077368335
 30
0.0
 10
1151.012528087627
 20
-354.2765518980619
 30
0.0
 10
1151.66006436154
 20
-354.5904645331631
 30
0.0
 10
1151.838339795209
 20
-354.6768888979614
 30
0.0
  0
LWPOLYLINE
  5
126
330
1F
100
AcDbEntity
  8
0
  6
Continuous
 62
     7
370
    25
100
AcDbPolyline
 90
       29
 70
   128
 43
0.0
 10
1104.9338928866
 20
-320.7648874698
 10
1105.9112148129
 20
-321.4723667997
 10
1106.5913287305
 20
-322.287653553
 10
1106.9401308876
 20
-323.1698658475
 10
1106.9401308876
 20
-324.0747658749
 10
1106.5913287305
 20
-324.9569781694
 10
1105.9112148129
 20
-325.7722649226
 10
1104.9338928866
 20
-326.4797442526
 10
1103.7083699539
 20
-327.0439401914
 10
1102.296098852
 20
-327.4365615988
 10
1100.767896751
 20
-327.637920798
 10
1099.2003940856
 20
-327.637920798
 10
1097.6721919846
 20
-327.4365615988
 10
1096.2599208827
 20
-327.0439401914
 10
1095.03439795
 20
-326.4797442526
 10
1094.0570760237
 20
-325.7722649226
 10
1093.3769621061
 20
-324.9569781694
 10
1093.0281599491
 20
-324.0747658749
 10
1093.0281599491
 20
-323.1698658475
 10
1093.3769621061
 20
-322.287653553
 10
1094.0570760237
 20
-321.4723667997
 10
1095.03439795
 20
-320.7648874698
 10
1096.2599208827
 20
-320.200691531
 10
1097.6721919846
 20
-319.8080701236
 10
1099.2003940856
 20
-319.6067109243
 10
1100.767896751
 20
-319.6067109243
 10
1102.296098852
 20
-319.8080701236
 10
1103.7083699539
 20
-320.200691531
 10
1104.9338928866
 20
-320.7648874698
  0
LWPOLYLINE
  5
127
330
1F
100
AcDbEntity
  8
0
  6
Continuous
 62
     7
370
    25
100
AcDbPolyline
 90
       24
 70
   128
 43
0.0
 10
1103.5196793242
 20
-321.5812955816
 10
1104.3424477685
 20
-322.2076428315
 10
1104.8419808653
 20
-322.9389099082
 10
1104.9812305301
 20
-323.7208620781
 10
1104.7498692524
 20
-324.4955055259
 10
1104.1650560396
 20
-325.2053884909
 10
1103.2701638124
 20
-325.797862201
 10
1102.1315626335
 20
-326.2289855915
 10
1100.8336973435
 20
-326.4667842129
 10
1099.4728246736
 20
-326.4936216291
 10
1098.1498743242
 20
-326.307507432
 10
1096.9629634707
 20
-325.9222448599
 10
1096.0001198612
 20
-325.3664070755
 10
1095.3327532016
 20
-324.6812180244
 10
1095.010359024
 20
-323.917495044
 10
1095.0568478297
 20
-323.131879974
 10
1095.4687717567
 20
-322.3826382901
 10
1096.2155802917
 20
-321.7253378206
 10
1097.2418860621
 20
-321.2087275342
 10
1098.4715726639
 20
-320.8711220526
 10
1099.8134398674
 20
-320.7375600299
 10
1101.1679675206
 20
-320.8179471503
 10
1102.4346965042
 20
-321.1063214689
 10
1103.5196793242
 20
-321.5812955816
  0
LWPOLYLINE
  5
128
330
1F
100
AcDbEntity
  8
0
  6
Continuous
 62
     1
370
    25
100
AcDbPolyline
 90
       97
 70
   128
 43
0.0
 10
818.185232352
 20
-407.8705767266
 10
819.5110446921
 20
-407.1176784739
 10
824.9738377837
 20
-404.2684521206
 10
830.6055181534
 20
-401.7285757195
 10
836.3999276413
 20
-399.5008265882
 10
842.3507301459
 20
-397.5876407378
 10
848.4514185518
 20
-395.9911102087
 10
854.695321846
 20
-394.7129807837
 10
861.0756124118
 20
-393.7546500786
 10
867.5853134952
 20
-393.1171660139
 10
874.2173068336
 20
-392.8012256691
 10
880.9643404396
 20
-392.8071745203
 10
887.8190365311
 20
-393.1350060626
 10
894.7738995986
 20
-393.7843618169
 10
901.8213246014
 20
-394.7545317222
 10
908.9536052836
 20
-396.0444549121
 10
916.1629426012
 20
-397.6527208745
 10
923.4414532496
 20
-399.5775709941
 10
930.7811782842
 20
-401.8169004755
 10
938.1740918235
 20
-404.368260645
 10
945.6121098251
 20
-407.2288616275
 10
953.0870989255
 20
-410.395575398
 10
960.5908853339
 20
-413.8649392014
 10
968.1152637699
 20
-417.6331593392
 10
975.6520064363
 20
-421.6961153183
 10
983.1928720157
 20
-426.0493643557
 10
990.7296146821
 20
-430.6881462376
 10
998.2539931181
 20
-435.6073885242
 10
1005.7577795265
 20
-440.8017120961
 10
1013.2327686269
 20
-446.2654370369
 10
1020.6707866285
 20
-451.9925888436
 10
1028.0637001678
 20
-457.9769049596
 10
1035.4034252024
 20
-464.2118416233
 10
1042.6819358508
 20
-470.6905810229
 10
1049.8912731684
 20
-477.406038752
 10
1057.0235538506
 20
-484.3508715561
 10
1064.0709788534
 20
-491.5174853626
 10
1071.0258419209
 20
-498.8980435845
 10
1077.8805380124
 20
-506.4844756897
 10
1084.6275716184
 20
-514.2684860261
 10
1091.2595649568
 20
-522.2415628926
 10
1097.7692660402
 20
-530.3949878469
 10
1104.149556606
 20
-538.7198452383
 10
1110.3934599002
 20
-547.2070319577
 10
1116.4941483061
 20
-555.8472673908
 10
1122.4449508107
 20
-564.6311035671
 10
1128.2393602986
 20
-573.5489354908
 10
1133.8710406683
 20
-582.5910116435
 10
1139.3338337599
 20
-591.7474446477
 10
1144.6217660894
 20
-601.0082220784
 10
1149.7290553804
 20
-610.3632174113
 10
1154.650116887
 20
-619.8022010965
 10
1159.3795695008
 20
-629.314851744
 10
1163.9122416347
 20
-638.8907674097
 10
1168.2431768783
 20
-648.5194769707
 10
1172.3676394176
 20
-658.1904515742
 10
1176.2811192132
 20
-667.8931161517
 10
1179.9793369326
 20
-677.6168609818
 10
1183.4582486288
 20
-687.3510532923
 10
1186.7140501631
 20
-697.0850488869
 10
1189.7431813642
 20
-706.8082037842
 10
1192.5423299217
 20
-716.5098858572
 10
1195.1084350077
 20
-726.1794864589
 10
1197.438690624
 20
-735.8064320231
 10
1199.5305486703
 20
-745.3801956261
 10
1201.3817217305
 20
-754.8903084979
 10
1202.9901855741
 20
-764.3263714699
 10
1204.3541813694
 20
-773.6780663456
 10
1205.4722176071
 20
-782.935167184
 10
1206.3430717309
 20
-792.0875514813
 10
1206.9657914748
 20
-801.1252112396
 10
1207.3396959037
 20
-810.0382639106
 10
1207.4643761587
 20
-818.8169632021
 10
1207.3396959037
 20
-827.4517097354
 10
1206.9657914748
 20
-835.9330615418
 10
1206.3430717309
 20
-844.2517443877
 10
1205.4722176071
 20
-852.3986619155
 10
1204.3541813694
 20
-860.3649055906
 10
1202.9901855741
 20
-868.1417644424
 10
1201.3817217305
 20
-875.7207345899
 10
1199.5305486703
 20
-883.0935285405
 10
1197.438690624
 20
-890.2520842524
 10
1195.1084350077
 20
-897.18857395
 10
1192.5423299217
 20
-903.8954126836
 10
1189.7431813642
 20
-910.3652666234
 10
1186.7140501631
 20
-916.5910610794
 10
1183.4582486288
 20
-922.5659882365
 10
1179.9793369326
 20
-928.2835145997
 10
1176.2811192132
 20
-933.7373881378
 10
1172.3676394176
 20
-938.9216451202
 10
1168.2431768783
 20
-943.830616638
 10
1163.9122416347
 20
-948.458934803
 10
1159.3795695008
 20
-952.8015386171
 10
1154.650116887
 20
-956.8536795069
 10
1149.7290553804
 20
-960.6109265157
 10
1144.6217660894
 20
-964.0691711492
 10
1140.6592886309
 20
-966.471939978
  0
LWPOLYLINE
  5
129
330
1F
100
AcDbEntity
  8
0
  6
Continuous
 62
     1
370
    25
100
AcDbPolyline
 90
       97
 70
   128
 43
0.0
 10
850.0053487418
 20
-389.5012145369
 10
851.3308498455
 20
-388.7484959579
 10
856.7936429371
 20
-385.8992696046
 10
862.4253233067
 20
-383.3593932035
 10
868.2197327947
 20
-381.1316440722
 10
874.1705352993
 20
-379.2184582217
 10
880.2712237052
 20
-377.6219276927
 10
886.5151269994
 20
-376.3437982677
 10
892.8954175652
 20
-375.3854675626
 10
899.4051186486
 20
-374.7479834979
 10
906.037111987
 20
-374.4320431531
 10
912.784145593
 20
-374.4379920043
 10
919.6388416845
 20
-374.7658235466
 10
926.593704752
 20
-375.4151793008
 10
933.6411297548
 20
-376.3853492062
 10
940.773410437
 20
-377.6752723961
 10
947.9827477546
 20
-379.2835383585
 10
955.261258403
 20
-381.208388478
 10
962.6009834376
 20
-383.4477179595
 10
969.9938969769
 20
-385.999078129
 10
977.4319149785
 20
-388.8596791115
 10
984.9069040789
 20
-392.026392882
 10
992.4106904873
 20
-395.4957566853
 10
999.9350689233
 20
-399.2639768232
 10
1007.4718115897
 20
-403.3269328023
 10
1015.0126771691
 20
-407.6801818397
 10
1022.5494198355
 20
-412.3189637216
 10
1030.0737982715
 20
-417.2382060082
 10
1037.5775846799
 20
-422.4325295801
 10
1045.0525737803
 20
-427.8962545209
 10
1052.4905917819
 20
-433.6234063276
 10
1059.8835053212
 20
-439.6077224436
 10
1067.2232303558
 20
-445.8426591073
 10
1074.5017410042
 20
-452.3213985069
 10
1081.7110783218
 20
-459.036856236
 10
1088.843359004
 20
-465.9816890401
 10
1095.8907840068
 20
-473.1483028466
 10
1102.8456470742
 20
-480.5288610685
 10
1109.7003431658
 20
-488.1152931737
 10
1116.4473767718
 20
-495.8993035101
 10
1123.0793701102
 20
-503.8723803766
 10
1129.5890711936
 20
-512.0258053309
 10
1135.9693617594
 20
-520.3506627223
 10
1142.2132650536
 20
-528.8378494417
 10
1148.3139534595
 20
-537.4780848748
 10
1154.2647559641
 20
-546.2619210511
 10
1160.059165452
 20
-555.1797529748
 10
1165.6908458217
 20
-564.2218291275
 10
1171.1536389133
 20
-573.3782621317
 10
1176.4415712428
 20
-582.6390395623
 10
1181.5488605338
 20
-591.9940348953
 10
1186.4699220404
 20
-601.4330185805
 10
1191.1993746542
 20
-610.9456692279
 10
1195.7320467881
 20
-620.5215848937
 10
1200.0629820317
 20
-630.1502944546
 10
1204.187444571
 20
-639.8212690582
 10
1208.1009243666
 20
-649.5239336357
 10
1211.799142086
 20
-659.2476784658
 10
1215.2780537822
 20
-668.9818707763
 10
1218.5338553165
 20
-678.7158663708
 10
1221.5629865176
 20
-688.4390212682
 10
1224.3621350751
 20
-698.1407033412
 10
1226.9282401611
 20
-707.8103039429
 10
1229.2584957774
 20
-717.4372495071
 10
1231.3503538237
 20
-727.0110131101
 10
1233.2015268839
 20
-736.5211259819
 10
1234.8099907275
 20
-745.9571889539
 10
1236.1739865228
 20
-755.3088838296
 10
1237.2920227605
 20
-764.565984668
 10
1238.1628768843
 20
-773.7183689653
 10
1238.7855966282
 20
-782.7560287236
 10
1239.1595010571
 20
-791.6690813946
 10
1239.2841813121
 20
-800.4477806861
 10
1239.1595010571
 20
-809.0825272194
 10
1238.7855966282
 20
-817.5638790258
 10
1238.1628768843
 20
-825.8825618717
 10
1237.2920227605
 20
-834.0294793995
 10
1236.1739865228
 20
-841.9957230746
 10
1234.8099907275
 20
-849.7725819263
 10
1233.2015268839
 20
-857.3515520739
 10
1231.3503538237
 20
-864.7243460245
 10
1229.2584957774
 20
-871.8829017364
 10
1226.9282401611
 20
-878.819391434
 10
1224.3621350751
 20
-885.5262301676
 10
1221.5629865176
 20
-891.9960841074
 10
1218.5338553165
 20
-898.2218785634
 10
1215.2780537822
 20
-904.1968057205
 10
1211.799142086
 20
-909.9143320837
 10
1208.1009243666
 20
-915.3682056218
 10
1204.187444571
 20
-920.5524626042
 10
1200.0629820317
 20
-925.461434122
 10
1195.7320467881
 20
-930.089752287
 10
1191.1993746542
 20
-934.4323561011
 10
1186.4699220404
 20
-938.4844969909
 10
1181.5488605338
 20
-942.2417439997
 10
1176.4415712428
 20
-945.6999886332
 10
1172.479140017
 20
-948.1027307725
  0
ENDSEC
  0
SECTION
  2
OBJECTS
  0
DICTIONARY
  5
C
330
0
100
AcDbDictionary
281
     1
  3
ACAD_GROUP
350
D
  3
ACAD_LAYOUT
350
1A
  3
ACAD_MLINESTYLE
350
17
  3
ACAD_PLOTSETTINGS
350
19
  3
ACAD_PLOTSTYLENAME
350
E
  3
ACAD_SCALELIST
350
47
  3
DWGPROPS
350
12A
  0
DICTIONARY
  5
D
102
{ACAD_REACTORS
330
C
102
}
330
C
100
AcDbDictionary
281
     1
  0
DICTIONARY
  5
1A
102
{ACAD_REACTORS
330
C
102
}
330
C
100
AcDbDictionary
281
     1
  3
Layout1
350
1E
  3
Layout2
350
26
  3
Model
350
22
  0
DICTIONARY
  5
17
102
{ACAD_REACTORS
330
C
102
}
330
C
100
AcDbDictionary
281
     1
  3
Standard
350
18
  0
DICTIONARY
  5
19
102
{ACAD_REACTORS
330
C
102
}
330
C
100
AcDbDictionary
281
     1
  0
ACDBDICTIONARYWDFLT
  5
E
102
{ACAD_REACTORS
330
C
102
}
330
C
100
AcDbDictionary
281
     1
  3
Normal
350
F
100
AcDbDictionaryWithDefault
340
F
  0
DICTIONARY
  5
47
102
{ACAD_REACTORS
330
C
102
}
330
C
100
AcDbDictionary
281
     1
  3
A0
350
48
  3
A1
350
49
  3
A2
350
4A
  3
A3
350
4B
  3
A4
350
4C
  3
A5
350
4D
  3
A6
350
4E
  3
A7
350
4F
  3
A8
350
50
  3
A9
350
51
  3
B0
350
52
  3
B1
350
53
  3
B2
350
54
  3
B3
350
55
  3
B4
350
56
  3
B5
350
57
  3
B6
350
58
  3
B7
350
59
  3
B8
350
5A
  3
B9
350
5B
  3
C0
350
5C
  3
C1
350
5D
  3
C2
350
5E
  3
C3
350
5F
  3
C4
350
60
  3
C5
350
61
  3
C6
350
62
  3
C7
350
63
  3
C8
350
64
  3
C9
350
65
  3
D0
350
66
  3
D1
350
67
  3
D2
350
68
  0
XRECORD
  5
12A
102
{ACAD_REACTORS
330
C
102
}
330
C
100
AcDbXrecord
280
     1
  1
DWGPROPS COOKIE
  2

  3

  4

  6

  7

  8
b.kav
  9

300
=
301
=
302
=
303
=
304
=
305
=
306
=
307
=
308
=
309
=
 40
0.0
 41
2459741.476729352
 42
2459741.476729537
  1

 90
        0
  0
LAYOUT
  5
1E
102
{ACAD_REACTORS
330
1A
102
}
330
1A
100
AcDbPlotSettings
  1

  2
none_device
  4

  6

 40
0.0
 41
0.0
 42
0.0
 43
0.0
 44
0.0
 45
0.0
 46
0.0
 47
0.0
 48
0.0
 49
0.0
140
0.0
141
0.0
142
1.0
143
1.0
 70
   688
 72
     1
 73
     0
 74
     5
  7

 75
    16
147
1.0
148
0.0
149
0.0
100
AcDbLayout
  1
Layout1
 70
     1
 71
     1
 10
0.0
 20
0.0
 11
420.0
 21
297.0
 12
0.0
 22
0.0
 32
0.0
 14
1.0000000000E+20
 24
1.0000000000E+20
 34
1.0000000000E+20
 15
-1.0000000000E+20
 25
-1.0000000000E+20
 35
-1.0000000000E+20
146
0.0
 13
0.0
 23
0.0
 33
0.0
 16
1.0
 26
0.0
 36
0.0
 17
0.0
 27
1.0
 37
0.0
 76
     0
330
1B
  0
LAYOUT
  5
26
102
{ACAD_REACTORS
330
1A
102
}
330
1A
100
AcDbPlotSettings
  1

  2
none_device
  4

  6

 40
0.0
 41
0.0
 42
0.0
 43
0.0
 44
0.0
 45
0.0
 46
0.0
 47
0.0
 48
0.0
 49
0.0
140
0.0
141
0.0
142
1.0
143
1.0
 70
   688
 72
     1
 73
     0
 74
     5
  7

 75
    16
147
1.0
148
0.0
149
0.0
100
AcDbLayout
  1
Layout2
 70
     1
 71
     2
 10
0.0
 20
0.0
 11
0.0
 21
0.0
 12
0.0
 22
0.0
 32
0.0
 14
0.0
 24
0.0
 34
0.0
 15
0.0
 25
0.0
 35
0.0
146
0.0
 13
0.0
 23
0.0
 33
0.0
 16
1.0
 26
0.0
 36
0.0
 17
0.0
 27
1.0
 37
0.0
 76
     0
330
23
  0
LAYOUT
  5
22
102
{ACAD_REACTORS
330
1A
102
}
330
1A
100
AcDbPlotSettings
  1

  2
none_device
  4
Letter_(8.50_x_11.00_Inches)
  6

 40
6.35
 41
6.35
 42
6.35000508
 43
6.35000508
 44
215.9
 45
279.4
 46
0.0
 47
0.0
 48
0.0
 49
0.0
140
0.0
141
0.0
142
1.0
143
1.0
 70
  1712
 72
     1
 73
     0
 74
     0
  7

 75
     0
147
1.0
148
0.0
149
0.0
100
AcDbLayout
  1
Model
 70
     1
 71
     0
 10
0.0
 20
0.0
 11
279.4
 21
215.9
 12
0.0
 22
0.0
 32
0.0
 14
0.0
 24
0.0
 34
0.0
 15
279.4
 25
215.9
 35
0.0
146
0.0
 13
0.0
 23
0.0
 33
0.0
 16
1.0
 26
0.0
 36
0.0
 17
0.0
 27
1.0
 37
0.0
 76
     0
330
1F
331
29
  0
MLINESTYLE
  5
18
102
{ACAD_REACTORS
330
17
102
}
330
17
100
AcDbMlineStyle
  2
Standard
 70
     0
  3

 62
   256
 51
90.0
 52
90.0
 71
     2
 49
0.5
 62
   256
  6
BYLAYER
 49
-0.5
 62
   256
  6
BYLAYER
  0
ACDBPLACEHOLDER
  5
F
102
{ACAD_REACTORS
330
E
102
}
330
E
  0
SCALE
  5
48
102
{ACAD_REACTORS
330
47
102
}
330
47
100
AcDbScale
 70
     0
300
1:1
140
1.0
141
1.0
290
     1
  0
SCALE
  5
49
102
{ACAD_REACTORS
330
47
102
}
330
47
100
AcDbScale
 70
     0
300
1:2
140
1.0
141
2.0
290
     0
  0
SCALE
  5
4A
102
{ACAD_REACTORS
330
47
102
}
330
47
100
AcDbScale
 70
     0
300
1:4
140
1.0
141
4.0
290
     0
  0
SCALE
  5
4B
102
{ACAD_REACTORS
330
47
102
}
330
47
100
AcDbScale
 70
     0
300
1:5
140
1.0
141
5.0
290
     0
  0
SCALE
  5
4C
102
{ACAD_REACTORS
330
47
102
}
330
47
100
AcDbScale
 70
     0
300
1:8
140
1.0
141
8.0
290
     0
  0
SCALE
  5
4D
102
{ACAD_REACTORS
330
47
102
}
330
47
100
AcDbScale
 70
     0
300
1:10
140
1.0
141
10.0
290
     0
  0
SCALE
  5
4E
102
{ACAD_REACTORS
330
47
102
}
330
47
100
AcDbScale
 70
     0
300
1:16
140
1.0
141
16.0
290
     0
  0
SCALE
  5
4F
102
{ACAD_REACTORS
330
47
102
}
330
47
100
AcDbScale
 70
     0
300
1:20
140
1.0
141
20.0
290
     0
  0
SCALE
  5
50
102
{ACAD_REACTORS
330
47
102
}
330
47
100
AcDbScale
 70
     0
300
1:30
140
1.0
141
30.0
290
     0
  0
SCALE
  5
51
102
{ACAD_REACTORS
330
47
102
}
330
47
100
AcDbScale
 70
     0
300
1:40
140
1.0
141
40.0
290
     0
  0
SCALE
  5
52
102
{ACAD_REACTORS
330
47
102
}
330
47
100
AcDbScale
 70
     0
300
1:50
140
1.0
141
50.0
290
     0
  0
SCALE
  5
53
102
{ACAD_REACTORS
330
47
102
}
330
47
100
AcDbScale
 70
     0
300
1:100
140
1.0
141
100.0
290
     0
  0
SCALE
  5
54
102
{ACAD_REACTORS
330
47
102
}
330
47
100
AcDbScale
 70
     0
300
2:1
140
2.0
141
1.0
290
     0
  0
SCALE
  5
55
102
{ACAD_REACTORS
330
47
102
}
330
47
100
AcDbScale
 70
     0
300
4:1
140
4.0
141
1.0
290
     0
  0
SCALE
  5
56
102
{ACAD_REACTORS
330
47
102
}
330
47
100
AcDbScale
 70
     0
300
8:1
140
8.0
141
1.0
290
     0
  0
SCALE
  5
57
102
{ACAD_REACTORS
330
47
102
}
330
47
100
AcDbScale
 70
     0
300
10:1
140
10.0
141
1.0
290
     0
  0
SCALE
  5
58
102
{ACAD_REACTORS
330
47
102
}
330
47
100
AcDbScale
 70
     0
300
100:1
140
100.0
141
1.0
290
     0
  0
SCALE
  5
59
102
{ACAD_REACTORS
330
47
102
}
330
47
100
AcDbScale
 70
     0
300
1/128" = 1'-0"
140
0.0078125
141
12.0
290
     0
  0
SCALE
  5
5A
102
{ACAD_REACTORS
330
47
102
}
330
47
100
AcDbScale
 70
     0
300
1/64" = 1'-0"
140
0.015625
141
12.0
290
     0
  0
SCALE
  5
5B
102
{ACAD_REACTORS
330
47
102
}
330
47
100
AcDbScale
 70
     0
300
1/32" = 1'-0"
140
0.03125
141
12.0
290
     0
  0
SCALE
  5
5C
102
{ACAD_REACTORS
330
47
102
}
330
47
100
AcDbScale
 70
     0
300
1/16" = 1'-0"
140
0.0625
141
12.0
290
     0
  0
SCALE
  5
5D
102
{ACAD_REACTORS
330
47
102
}
330
47
100
AcDbScale
 70
     0
300
3/32" = 1'-0"
140
0.09375
141
12.0
290
     0
  0
SCALE
  5
5E
102
{ACAD_REACTORS
330
47
102
}
330
47
100
AcDbScale
 70
     0
300
1/8" = 1'-0"
140
0.125
141
12.0
290
     0
  0
SCALE
  5
5F
102
{ACAD_REACTORS
330
47
102
}
330
47
100
AcDbScale
 70
     0
300
3/16" = 1'-0"
140
0.1875
141
12.0
290
     0
  0
SCALE
  5
60
102
{ACAD_REACTORS
330
47
102
}
330
47
100
AcDbScale
 70
     0
300
1/4" = 1'-0"
140
0.25
141
12.0
290
     0
  0
SCALE
  5
61
102
{ACAD_REACTORS
330
47
102
}
330
47
100
AcDbScale
 70
     0
300
3/8" = 1'-0"
140
0.375
141
12.0
290
     0
  0
SCALE
  5
62
102
{ACAD_REACTORS
330
47
102
}
330
47
100
AcDbScale
 70
     0
300
1/2" = 1'-0"
140
0.5
141
12.0
290
     0
  0
SCALE
  5
63
102
{ACAD_REACTORS
330
47
102
}
330
47
100
AcDbScale
 70
     0
300
3/4" = 1'-0"
140
0.75
141
12.0
290
     0
  0
SCALE
  5
64
102
{ACAD_REACTORS
330
47
102
}
330
47
100
AcDbScale
 70
     0
300
1" = 1'-0"
140
1.0
141
12.0
290
     0
  0
SCALE
  5
65
102
{ACAD_REACTORS
330
47
102
}
330
47
100
AcDbScale
 70
     0
300
1-1/2" = 1'-0"
140
1.5
141
12.0
290
     0
  0
SCALE
  5
66
102
{ACAD_REACTORS
330
47
102
}
330
47
100
AcDbScale
 70
     0
300
3" = 1'-0"
140
3.0
141
12.0
290
     0
  0
SCALE
  5
67
102
{ACAD_REACTORS
330
47
102
}
330
47
100
AcDbScale
 70
     0
300
6" = 1'-0"
140
6.0
141
12.0
290
     0
  0
SCALE
  5
68
102
{ACAD_REACTORS
330
47
102
}
330
47
100
AcDbScale
 70
     0
300
1'-0" = 1'-0"
140
12.0
141
12.0
290
     0
  0
ENDSEC
  0
EOF
